Thin Lizzy - Rosalie Chords & Tabs

 

Rosalie Chords & Tabs

Thin Lizzy Chords & Tabs

Version: 1 Type: Tab 1 rating
1 star 2 stars 3 stars 4 stars 5 stars
comments

Rosalie Tab

Artist	Thin Lizzy
Title	Rosalie
Album	Fighting


Intro (00.00 - 00.11)

|----------------------------------------------|
|-222h322h3-23232323232h3-222h322h3-232323232h3|
|-222--22---2-2-2-2-2-2---222--22---2-2-2-2-2--|  (Match Rhythm to Song)
|-222--22---2-2-2-2-2-2---222--22---2-2-2-2-2--|
|----------------------------------------------|
|----------------------------------------------|

Verse 1 (00.11 - 00.25)

|----------------------------------------------|
|-2-2-23-23-2-23-23232323232h3-----------------|
|-2-2-2--2--2-2--2-2-2-2-2-2-------------------| Listen to song, repeat as necessary
|-2-2-2--2--2-2--2-2-2-2-2-2-------------------|
|----------------------------------------------|
|----------------------------------------------|


Pre-Chorus (00.25 - 00.40)

|----------------------------------------------|
|-----------------------------------7------7---|
|-----------------------------------7------7---| repeat as necessary
|-----------------------------5555xx75555xx7---|
|-222h4-222h4-222h4-222h4-2h4-5555xx55555xx5---|
|-----------------------------3333xx-3333xx----|


Chorus (00.40 - 00.54)

|----------------------------------------------|
|-222h322h3-23232323232h3-222h322h3-232323232h3|
|-222--22---2-2-2-2-2-2---222--22---2-2-2-2-2--|  (Match Rhythm to Song)
|-222--22---2-2-2-2-2-2---222--22---2-2-2-2-2--|
|----------------------------------------------|
|----------------------------------------------|

Verse 2 (00.54 - 01.08)

|----------------------------------------------|
|-2-2-23-23-2-23-23232323232h3-----------------|
|-2-2-2--2--2-2--2-2-2-2-2-2-------------------| Listen to song, repeat as necessary
|-2-2-2--2--2-2--2-2-2-2-2-2-------------------|
|----------------------------------------------|
|----------------------------------------------|


Pre-Chorus (01.08 - 01.22)

|----------------------------------------------|
|-----------------------------------7------7---|
|-----------------------------------7------7---| repeat as necessary
|-----------------------------5555xx75555xx7---|
|-222h4-222h4-222h4-222h4-2h4-5555xx55555xx5---|
|-----------------------------3333xx-3333xx----|


Chorus (01.22 - 01.37)
[ Tab from: http://www.guitartabs.cc/tabs/t/thin_lizzy/rosalie_tab.html ]
|----------------------------------------------|
|-222h322h3-23232323232h3-222h322h3-232323232h3|
|-222--22---2-2-2-2-2-2---222--22---2-2-2-2-2--|  (Match Rhythm to Song)
|-222--22---2-2-2-2-2-2---222--22---2-2-2-2-2--|
|----------------------------------------------|
|----------------------------------------------|

Bridge (01.37 - 01.53)

|----------------------------------------------|
|---------------------------------7---7---7----|
|---------------------------------7-6-7-6-7-6-1| (Match Rhythm to Song)
|--444h2----------444h2-----------7-7-7-7-7-7-2|
|-0-----3h2222h3h0-----3h2222h3h0-5-7-5-7-5-7-2|
|-------------------------------------5---5----|


Solo (01.53 - 02.08) with Wah-Wah Pedal
									      
|-------------------------------------------------------------------------------------------17----------|
|-17^17^17^17h15p17h-12h14h12-------------17-------12h14h12-----12h14h12------17^17^17^17h19--19h17~~~~-|
|----------------------------13--13-----18--14~h11---------14h11--------14h17---------------------------| 
|------------------------------16--16h14----------------------------------------------------------------|
|-------------------------------------------------------------------------------------------------------|
|-------------------------------------------------------------------------------------------------------|


Verse 3 (02.08 - 02.22)

|----------------------------------------------|
|-2-2-23-23-2-23-23232323232h3-----------------|
|-2-2-2--2--2-2--2-2-2-2-2-2-------------------| Listen to song, repeat as necessary
|-2-2-2--2--2-2--2-2-2-2-2-2-------------------|
|----------------------------------------------|
|----------------------------------------------|



Pre-Chorus (02.22 - 02.36)

|----------------------------------------------|
|-----------------------------------7------7---|
|-----------------------------------7------7---| repeat as necessary
|-----------------------------5555xx75555xx7---|
|-222h4-222h4-222h4-222h4-2h4-5555xx55555xx5---|
|-----------------------------3333xx-3333xx----|



Chorus (02.36 - 02.56)

|----------------------------------------------|
|-222h322h3-23232323232h3-222h322h3-232323232h3|
|-222--22---2-2-2-2-2-2---222--22---2-2-2-2-2--|  (Match Rhythm to Song)
|-222--22---2-2-2-2-2-2---222--22---2-2-2-2-2--|   Repeat to fade
|----------------------------------------------|
|----------------------------------------------|


Any changes or additions,would be much appreciated. Enjoy
Other Songs on the way: Running Back, Angel From The Coast.

Philip,
wrostle@yahoo.com

Dedicated to the Memory of BLACK THUNDER!
Comments