Thin Lizzy - Roisin Dubh (black Rose) A Rock Legend Chords & Tabs

 

Roisin Dubh (black Rose) A Rock Legend Chords & Tabs

Thin Lizzy Chords & Tabs

Version: 1 Type: Tab 0 ratings
1 star 2 stars 3 stars 4 stars 5 stars
comments

Roisin Dubh (black Rose) A Rock Legend Tab

   
#----------------------------------PLEASE NOTE---------------------------------#
#This file is the author's own work and represents their interpretation of the #
#song. You may only use this file for private study, scholarship, or research. #
#------------------------------------------------------------------------------##

                     RÓISÍN DUBH (BLACK ROSE): A ROCK LEGEND
                            As recorded by Thin Lizzy
                 (From the 1979 Album BLACK ROSE: A ROCK LEGEND)

Words by Philip Lynott, F. McPeak, trad.

Music by Philip Lynott, Gary Moore, F. McPeak, trad. arr.
Transcribed by pykli

          G5                   C5                  E5VII                 D5
    x 10 12 12 x x         x 3 5 5 x x          x 7 9 9 x x          x x 0 2 3 x

          G5V                  Em                   A5                  D/F#
      x x 5 7 8 x          x x 2 0 0 0          x 0 2 2 x x          x x 4 2 3 x

          D5V
      x 5 7 7 x x

Gtr I (Eb Ab Db Gb Bb Eb) - 'Guitar #1'
Gtr II (Eb Ab Db Gb Bb Eb) - 'Guitar #2'
Gtr III (Eb Ab Db Gb Bb Eb) - 'Guitar #3'
Gtr IV (Eb Ab Db Gb Bb Eb) - 'Guitar #4 (overdrive)'
Gtr V (Eb Ab Db Gb Bb Eb) - 'Guitar #5 (clean)'

 Intro
  Q.=93
  G                    D
 9/8                  12/8
  Gtrs I, II
                       ~~~~~~~~~~~~~~~~~~
  E. S E E E E E E E   H.      +Q.   +E  E E
|--------------------|-----------------------|
|--------------------|-----------------------|
|--------------------|-----------------------|
|--------------------|-----------------------|
|----------------2-3-|-5-------(5)---(5)-7-9-|
|-3--3-3-3-2-3-5-----|-----------------------|


  G                     Em/B
 9/8                   12/8
                         ~~~~~~~~~~~~~~~~~~
  E S S E E E E E E E    H.      +Q.   +E  E E
|---------------------|--------------------------|
|---------------------|--------------------------|
|---------------------|--------------------------|
|-5-5-5-5-5-4---------|--------------------------|
|-------------7-5-7-5-|--------------------------|
|---------------------|-/7-------(7)---(7)-0-2---|


  G                    D                       G                     Em/B
 9/8                  12/8                    9/8                   12/8
                       ~~~~~~~~~~~~~~~~~~                             ~~~
  E. S E E E E E E E   H.      +Q.   +E  E E   E S S E E E E E E E    W.
|--------------------|-----------------------|---------------------|--------|
|--------------------|-----------------------|---------------------|--------|
|--------------------|-----------------------|---------------------|--------|
|--------------------|-----------------------|-5-5-5-5-5-4---------|--------|
|----------------2-3-|-5-------(5)---(5)-7-9-|-------------7-5-7-5-|--------|
|-3--3-3-3-2-3-5-----|-----------------------|---------------------|-/7-----|


   Verse
    G5       C      Em              G5       C      D5
   9/8             12/8            9/8             12/8
     H.      E Q    W.               H.      E Q    W.
||----------------|---------------|---------------|--------||
||o----------5----|-8-------------|----------5----|-------o||
||--12-------5----|-9-------------|-12-------5----|-7------||
||--12-------5----|-9-------------|-12-------5----|-7------||
||o-10-------3----|-7-------------|-10-------3----|-5-----o||
||----------------|-0-------------|---------------|--------||


 Chorus
  G                    D
 9/8                  12/8
  Gtrs I, II
                       ~~~~~~~~~~~~~~~~~~
  E. S E E E E E E E   H.      +Q.   +E  E E
|--------------------|-----------------------|
|--------------------|-----------------------|
|--------------------|-----------------------|
|--------------------|-----------------------|
|----------------2-3-|-5-------(5)---(5)-7-9-|
|-3--3-3-3-2-3-5-----|-----------------------|


  G                     Em/B
 9/8                   12/8
                         ~~~~~~~~~~~~~~~~~~
  E S S E E E E E E E    H.      +Q.   +E  E E
|---------------------|--------------------------|
|---------------------|--------------------------|
|---------------------|--------------------------|
|-5-5-5-5-5-4---------|--------------------------|
|-------------7-5-7-5-|--------------------------|
|---------------------|-/7-------(7)---(7)-0-2---|


  G                    D                       G                     Em/B
 9/8                  12/8                    9/8                   12/8
  Gtr II
                       ~~~~~~~~~~~~~~~~~~                             ~~~
  E. S E E E E E E E   H.      +Q.   +E  E E   E S S E E E E E E E    W.
|--------------------|-----------------------|---------------------|--------|
|--------------------|-----------------------|---------------------|--------|
|--------------------|-----------------------|---------------------|--------|
|--------------------|-------------------5-7-|-9-9-9-9-9-7-5---5---|--------|
|----------------5-7-|-9-------(9)---(9)-----|---------------9---9-|--7-----|
|-7--7-7-7-5-7-8-----|-----------------------|---------------------|--------|
|
| Gtr I
|                      ~~~~~~~~~~~~~~~~~~                             ~~~
| E. S E E E E E E E   H.      +Q.   +E  E E   E S S E E E E E E E    W.
|--------------------|-----------------------|---------------------|--------|
|--------------------|-----------------------|---------------------|--------|
|--------------------|-----------------------|---------------------|--------|
|--------------------|-----------------------|-5-5-5-5-5-4---------|--------|
|----------------2-3-|-5-------(5)---(5)-7-9-|-------------7-5-7-5-|--------|
|-3--3-3-3-2-3-5-----|-----------------------|---------------------|-/7-----|


   Verse
    G5       C      Em              G5       C      D5
   9/8             12/8            9/8             12/8
     H.      E Q    W.               H.      E Q    W.     4x
||----------------|---------------|---------------|--------||
||o----------5----|-8-------------|----------5----|-------o||
||--12-------5----|-9-------------|-12-------5----|-7------||
||--12-------5----|-9-------------|-12-------5----|-7------||
||o-10-------3----|-7-------------|-10-------3----|-5-----o||
||----------------|-0-------------|---------------|--------||


 Chorus               Chorus
  G                    D
 9/8                  12/8
  Gtr II
                       ~~~~~~~~~~~~~~~~~~
  E. S E E E E E E E   H.      +Q.   +E  E E
|--------------------|-----------------------|
|--------------------|-----------------------|
|--------------------|-----------------------|
|--------------------|-------------------5-7-|
|----------------5-7-|-9-------(9)---(9)-----|
|-7--7-7-7-5-7-8-----|-----------------------|
|
| Gtr I
|                      ~~~~~~~~~~~~~~~~~~
| E. S E E E E E E E   H.      +Q.   +E  E E
|--------------------|-----------------------|
|--------------------|-----------------------|
|--------------------|-----------------------|
|--------------------|---------------------4-|
|----------------2-3-|-5-------(5)---(5)-7---|
|-3--3-3-3-2-3-5-----|-----------------------|


  G                     Em/B
 9/8                   12/8
                         ~~~~~~~~~~~~~~~~~~
  E S S E E E E E E E    H.      +Q.   +E  E E
|---------------------|--------------------------|
|---------------------|--------------------------|
|---------------------|--------------------------|
|-9-9-9-9-9-7-5-4-5-4-|--------------------------|
|---------------------|--7-------(7)---(7)-------|
|---------------------|--------------------3-5---|
|
|                        ~~~~~~~~~~~~~~~~~~
| E S S E E E E E E E    H.      +Q.   +E  E E
|---------------------|--------------------------|
|---------------------|--------------------------|
|---------------------|--------------------------|
|-5-5-5-5-5-4---------|--------------------------|
|-------------7-5-7-5-|--------------------------|
|---------------------|-/7-------(7)---(7)-0-2---|


  G                    D
 9/8                  12/8
  Gtr II
                       ~~~~~~~~~~~~~~~~~~
  E. S E E E E E E E   H.      +Q.   +E  E E
|--------------------|-----------------------|
|--------------------|-----------------------|
|--------------------|-----------------------|
|--------------------|-------------------5-7-|
|----------------5-7-|-9-------(9)---(9)-----|
|-7--7-7-7-5-7-8-----|-----------------------|
|
| Gtr I
|                      ~~~~~~~~~~~~~~~~~~
| E. S E E E E E E E   H.      +Q.   +E  E E
|--------------------|-----------------------|
|--------------------|-----------------------|
|--------------------|-----------------------|
|--------------------|-----------------------|
|----------------2-3-|-5-------(5)---(5)-7-9-|
|-3--3-3-3-2-3-5-----|-----------------------|


  G                    Em/B
 9/8                  12/8
                        ~~~~~~~~~~~~
  E. S E E E E E E E    H.      +Q.   Q  E
|--------------------|------------------------|
|--------------------|------------------------|
|--------------------|------------------------|
|-9--9-9-9-7-5-4-5-4-|------------------------|
|--------------------|--7-------(7)---5--7----|
|--------------------|------------------------|
|
|                       ~~~~~~~~~~~~
| E. S E E E E E E E    H.      +Q.   Q  E
|--------------------|------------------------|
|--------------------|------------------------|
|--------------------|------------------------|
|-5--5-5-5-4---------|------------------------|
|------------7-5-7-5-|----------------5--7----|
|--------------------|-/7-------(7)-----------|


 Guitar break
  G
 12/8
  Gtrs I, II
        ~~~~~~~~~~                  ~~~~~~~~~~
                                                  |-3-|
  Q  E +H     +E  E  Q  E   Q    E +H     +Q   Q  S S S
|-------------------------|-----------------------------|
|-------------------------|--------------------8--7h8p7-|
|-----------------------7-|-7b9--7-(7)----(7)-----------|
|-5--5-(5)----(5)-5-/9----|-----------------------------|
|-------------------------|-----------------------------|
|-------------------------|-----------------------------|


  Em                G
  ~                        ~~~
  W        E Q  E    Q  E +H     +Q   Q  E
|-----------------|---------------------------|
|-----------------|---------------------------|
|-9--------7-9--7-|-----7-(7)----(7)-----7----|
|-----------------|-/9----------------9-------|
|-----------------|---------------------------|
|-----------------|---------------------------|


  Em                 G
   ~~                         ~~~~~~~~~~
   W        E Q  E   Q     E +H     +Q   Q  E
|------------------|--------------------------|
|------------------|--------------------------|
|-/9--------7-9--7-|------------------------4-|
|------------------|-7pb9r=5-(5)----(5)--7----|
|------------------|--------------------------|
|------------------|--------------------------|


  C                     Em        D
  ~              ~             ~~~~~~~~~~
           |-3-|
  W        S S S Q  E    Q  E +H     +Q   Q  E
|---------------------|-------------------------|
|---------------------|-------------------------|
|-5--------4h5p4------|-------------------------|
|----------------7--5-|-------------------------|
|---------------------|-/7--5-(5)----(5)--5--7--|
|---------------------|-------------------------|


  G              Am      G
                                       Gtr III
                                        |------6:5-------|
   W.                     H.        E   E E    E    E  E E
|----------------------|------------------------------14----|
|----------------------|---------------15-----17------------|
|----------------------|------------------------------------|
|----------------------|------------------------------------|
|----------------------|------------------------------------|
|----------------------|------------------------------------|
|
| Gtr II
|  H.       Q.    Q.      H.       +Q       E    Q.
|----------------------|------------------------------------|
|-12-------12----13----|-12-------(12)----------------------|
|----------------------|------------------------------------|
|----------------------|------------------------------------|
|----------------------|------------------------------------|
|----------------------|------------------------------------|
|
| Gtr I
|  H.       Q.    Q.      H.       +Q       E    Q.
|----------------------|------------------------------------|
|----------------------|------------------------------------|
|----------------------|------------------------------------|
|--5--------5-----7----|--5--------(5)----------------------|
|----------------------|------------------------------------|
|----------------------|------------------------------------|


 Guitar solo
  G5                     C5
   ~~~~~~~~~~~~~~~~~~                    ~~
                                |--3--|
   Q.           +Q     e  Q     S  S  S  Q    E
|-14b15========(14)r--14-14----12h14p12---------|
|---------------------------------------15---13-|
|-----------------------------------------------|
|-----------------------------------------------|
|-----------------------------------------------|
|-----------------------------------------------|
|
| Gtr IV
|  E.     S  E   Q     E  E. S  E        E E  E
|-----------------------------------------------|
|-----------------------------------------------|
|-12-----12-12--12----12--5--5--5--------5-5--5-|
|-12-----12-12--12----12--5--5--5--------5-5--5-|
|-10-----10-10--10----10--3--3--3--------3-3--3-|
|-----------------------------------------------|


  G
                ~~~~~~~~~~~~
   E  E     E   Q.      +Q     E  Q    E
|--------------------------------12---14-|
|-15--------------------------15---------|
|----14b16-----12------(12)--------------|
|----------------------------------------|
|----------------------------------------|
|----------------------------------------|
|
|  E  E     E   E  E E   E  E  E  E E  E
|----------------------------------------|
|----------------------------------------|
|--4-(4)---(4)-----------4--------4-4--4-|
|--5--5-----5---5--5-5---5--5--5--5-5--5-|
|--5--5-----5---5--5-5---5--5--5--5-5--5-|
|--3--3-----3---3--3-3---3--3--3--3-3--3-|


  G                       C5
   ~~~~~~~~~~~~~~~~
                                |--3--|
   Q.         +Q        e  Q    S  S  S  E  Q
|-14b15======(14)r-----14-14---12h14p12------------|
|---------------------------------------15---------|
|------------------------------------------14b16---|
|--------------------------------------------------|
|--------------------------------------------------|
|--------------------------------------------------|
|
|  E.    S E   E    E   E  E E  E        E  E    E
|--------------------------------------------------|
|--------------3---(3)-----------------------------|
|--------------4---(4)-----5-5--5--------5--5----5-|
|--5-----5-5---5----5---5--5-5--5--------5--5----5-|
|--5-----5-5---5----5---5--3-3--3--------3--3----3-|
|--3-----3-3---3----3---3--------------------------|


  Am           D5
   ~~~                 ~~
   H.           +Q     E  E.    S      +E
|------------------------------17b19==(17)--|
|---------------------15-15-----------------|
|-14-----------(14)-------------------------|
|-------------------------------------------|
|-------------------------------------------|
|-------------------------------------------|
|
|  E  E E Q  E   E  E  E  E  E          E
|-------------------------------------------|
|-------------------------------------------|
|---------5------7--7--7--7--7----------7---|
|--7--7-7-7--7---7--7--7--7--7----------7---|
|--7--7-7-7--7---5--5--5--5--5----------5---|
|--5--5-5-5--5------------------------------|


  G                  C5
    ~~~~~~~~~~~~~
                            |--3--|
   +Q.      +Q     e  Q     S  S  s  Q       E
|-(17)-----(17)r--17-17----15h17p15---------15-|
|-----------------------------------15b17------|
|----------------------------------------------|
|----------------------------------------------|
|----------------------------------------------|
|----------------------------------------------|
|
|   E. S E   Q     E  E. S  E        E    E  E
|----------------------------------------------|
|----------------------------------------------|
|------------4--------5--5--5--------5----5--5-|
|---5--5-5---5-----5--5--5--5--------5----5--5-|
|---5--5-5---5-----5--3--3--3--------3----3--3-|
|---3--3-3---3-----3---------------------------|


  Em
              ~~~~~~~~~~~~~~         ~~
   E  E    E  Q.        +Q       E   Q    E
|-------------------------------------------|
|-15----------------------------------------|
|----14b16---12--------(12)-----11--12---14-|
|-------------------------------------------|
|-------------------------------------------|
|-------------------------------------------|
|
|  E  E    E  E   E  E  +E   E   E   E E  E
|-------------0--(0)-0--(0)-----------------|
|-------------0---0--0--(0)-(0)-(0)---------|
|-------------0---0--0--(0)-(0)-(0)---------|
|--2--2----2-(2)--2--2--(2)--2---2---2-2--2-|
|--2--2----2-(2)-(2)-2--(2)--2---2---2-2--2-|
|--0--0----0-(0)-(0)-0--(0)--0---0---0-0--0-|


  G5                    C5     D5        G
   ~~~~~                           ~~~~~~~~~~
   Q       E  E  Q       Q   E  E  Q      H.               Q.     Q.
|---------12---------------------------|---------------------------------|
|------------15------------------------|---------------------------------|
|-14b16---------14b16---14--12----11---|-12--------------(12)\-----------|
|------------------------------14------|-----------------(12)\-----------|
|--------------------------------------|---------------------------------|
|--------------------------------------|---------------------------------|
|
|  E    E  E  Q       E  Q   E  Q    E    E  E E E  E  E   Q    E Q.
|--------------------------------------|-------------------3-------------|
|--------------------------------------|-------------------3-------------|
|------------------------5------7------|---------4-(4)-----4-------------|
|--5----5--5--5-------5--5------7------|--5--5-5-5--5--5---5\------------|
|--5----5--5--5-------5--3------5------|--5--5-5-5--5--5---5\------------|
|--3----3--3--3-------3----------------|--3--3-3-3--3--3---3\------------|
|
|                                        Gtr I
|                                                                    PM|
|  W.                                     H.               Q.     E  E E
|--------------------------------------|---------------------------------|
|--------------------------------------|---------------------------------|
|--------------------------------------|---------------------------------|
|--------------------------------------|---------------------------------|
|--------------------------------------|-----------------------------7-9-|
|--------------------------------------|---------------------------------|


 Guitar duet
  Em
  Gtr I
   PM----|   ~~           ~~~~~~~~~~~~~~~~~~~~~~~~                                 PM----
                   |-3-|
   E   E  E  Q     S S S  H.                  +H.                     Q.        E  E  E
|-------------------------------------------|-------------------------------------------|
|-------------------------------------------|-------------------------------------------|
|------------9-----7h9p7--------------------|-------------------------------------------|
|------7--9---------------------------------|-------------------------------------------|
|-10----------------------7-----------------|-(7)----------------------------------7--9-|
|-------------------------------------------|-------------------------------------------|
|
| Gtr II
|                                      PM------------|   ~~           ~~~~~~~~~~~~~~~~~~~
|                                                              |-3-|
|  H.                     Q.        E  E  E    E   E  E  Q     S S S  H.
|-------------------------------------------|-------------------------------------------|
|-------------------------------------------|-------------------------------------------|
|-------------------------------------------|------------9-----7h9p7--------------------|
|-------------------------------------------|------7--9---------------------------------|
|--------------------------------------7--9-|-10----------------------7-----------------|
|-------------------------------------------|-------------------------------------------|
|
| Gtr V
|  E   E  E  E  E  E      E   E  E  E  E  E    E   E  E  E  E  E      E   E  E  E  E  E
|-----------12---------------------12-------|-----------12---------------------12-------|
|-----12-------12------------12-------12----|-----12-------12------------12-------12----|
|--------12-------12------------12-------12-|--------12-------12------------12-------12-|
|-14---------------------14-----------------|-14---------------------14-----------------|
|-------------------------------------------|-------------------------------------------|
|-------------------------------------------|-------------------------------------------|


  Bm
 -------| ~         ~~~~~~~~~~~~~~~~~~~
              |-3-|
   E  E E Q   S S S H.             +H.               Q.     E E  E
|--------------------------------|---------------------------------|
|--------------------------------|---------------------------------|
|---------9---7h9p7--------------|----------------------------9-11-|
|-----7-9-----------9------------|-(9)-----------------------------|
|-10-----------------------------|---------------------------------|
|--------------------------------|---------------------------------|
|
|~~~~~                       PM----------| ~         ~~
|                                              |-3-|
| +H.               Q.     E E E    E  E E Q   S S S H.
|--------------------------------|---------------------------------|
|--------------------------------|---------------------------------|
|--------------------------------|---------9---7h9p7---------------|
|--------------------------------|-----7-9-----------9-------------|
|-(7)------------------------7-9-|-10------------------------------|
|--------------------------------|---------------------------------|
|
|  E  E E E E E     E  E E E E E    E  E E E E E     E  E E E E  E
|---------7----------------7-----|---------7----------------7------|
|-----7-----7----------7-----7---|-----7-----7----------7-----7----|
|-------7-----7----------7-----7-|-------7-----7----------7------7-|
|--9----------------9------------|--9----------------9-------------|
|--------------------------------|---------------------------------|
|--------------------------------|---------------------------------|


  Em
             ~~                      ~~~~~~~~~~~~~~~
   E   E  E  Q     E  E  +E     +E  +Q.         +H.                 Q.             E   E  E
|-----------12----10--------------------------|---------------------------------------------|
|--8--10-12-----------------------------------|---------------------------------------------|
|---------------------9--(9)b12r(9)-(9)-------|-(9)------------------------------------9-11-|
|---------------------------------------------|---------------------------------------------|
|---------------------------------------------|---------------------------------------------|
|---------------------------------------------|---------------------------------------------|
|
|  ~~~                                                                             ~~~~~~~~~~
| +H.                 Q.             E   E  E    E   E  E  Q     E  E  +E     +E  +Q.
|---------------------------------------------|-----------12----10--------------------------|
|---------------------------------------------|--8--10-12-----------------------------------|
|----------------------------------------9-11-|---------------------9--(9)b12r(9)-(9)-------|
|-(9)-----------------------------------------|---------------------------------------------|
|---------------------------------------------|---------------------------------------------|
|---------------------------------------------|---------------------------------------------|
|
|  E   E  E  E  E  E  E   E      E   E   E  E    E   E  E  E  E  E  E   E      E   E   E  E
|-----------12----------------------12--------|-----------12----------------------12--------|
|-----12-------12--------12-------------12----|-----12-------12--------12-------------12----|
|--------12-------12------------12---------12-|--------12-------12------------12---------12-|
|-14-----------------14-----------------------|-14-----------------14-----------------------|
|---------------------------------------------|---------------------------------------------|
|---------------------------------------------|---------------------------------------------|


  G
                  |--3--|
   E   E  E  Q    S  S  S  H.                  +H.                       Q.     E   E  E
|-----------12---10h12p10-------------------|--------------------------------------12-14----|
|-----10-12-12------------10b12=============|=(10)r-----------------------------------------|
|-12----------------------------------------|-----------------------------------------------|
|-------------------------------------------|-----------------------------------------------|
|-------------------------------------------|-----------------------------------------------|
|-------------------------------------------|-----------------------------------------------|
|
|~~~~~                                                                   ~~~
|                                                               |--3--|
| +H.                      Q.        E E  E     E    E  E  Q    S  S  S  Q.     Q.
|-------------------------------------------|-------------12---10h12p10---------------------|
|-------------------------------------------|-------10-12---------------12------------------|
|-(9)----------------------------------9-11-|--12-------------------------------------------|
|-------------------------------------------|-----------------------------------------------|
|-------------------------------------------|-----------------------------------------------|
|-------------------------------------------|-----------------------------------------------|
|
|  E   E  E  E E  E        E     E E E E  E     E    E  E  E E  E        E  E E E   E  E
|------------3-----------------------3------|--------------3--------------------3-----------|
|------3-------3-----------------3-----3----|--------3-------3--------------3-------3-------|
|---------4-------4----------------4------4-|-----------4-------4-------------4--------4----|
|--5-----------------------5----------------|---5------------------------5------------------|
|-------------------------------------------|-----------------------------------------------|
|-------------------------------------------|-----------------------------------------------|


  Em
  Gtr I
       |--3--|                  |--3--|
   E   S  S  S  E  E  E  E  E   S  S  S  E  E  E  E
|-15--14h15p14-12-14-12S10-12--10h12p10S=7-10--7S=5-|
|---------------------------------------------------|
|---------------------------------------------------|
|---------------------------------------------------|
|---------------------------------------------------|
|---------------------------------------------------|
|
| Gtr II
|  H.                       Q.              Q     E
|-----------------------14-15--14h15p14----14----14-|
|---------------------------------------17----17-15-|
|---------------------------------------------------|
|---------------------------------------------------|
|---------------------------------------------------|
|---------------------------------------------------|
|  Q.              Q     E  E   S  S  S  E  E  E  E
|                               |--3--|
|
|  E   E        E  E  E  E  E   E        E  E  E  E
|-----------------12-----------------------12-------|
|-----12-------------12--------12-------------12----|
|--------------12-------12--------------12-------12-|
|-14-----------------------14-----------------------|
|---------------------------------------------------|
|---------------------------------------------------|


                           ~~~
      |--3--|
   E  S  S  S  E  E  E  E  Q.        E   E  E
|--7--5h=7p=5S=3--5--3--2---------------------|
|--------------------------5------------------|
|---------------------------------------------|
|---------------------------------------------|
|----------------------------------------5--7-|
|---------------------------------------------|
|
|                          ~~~
|     |--3--|
|  E  S  S  S  E  E  E  E  Q.        Q.
|-15-14h15p14-12-14-12S10---------------------|
|-17-15h17p15-12-15-12S10-12------------------|
|-------------------------12------------------|
|---------------------------------------------|
|---------------------------------------------|
|---------------------------------------------|
|  E  S  S  S  E  E  E  E  Q.        Q.
|     |--3--|
|
|  E  E        E  E  E  E  E   E  E  E   E  E
|----------------12-----------------12--------|
|----12-------------12--------12--------12----|
|-------------12-------12--------12--------12-|
|-14----------------------14------------------|
|---------------------------------------------|
|---------------------------------------------|


  G5                        G5           E5VII
  Gtr V
  H.          H.            H.           H.
  |           |             |            |
  /           /             /            /

  Gtrs I, II
  ~~          ~~            ~~           ~~
  Q   E E.S E Q   E E.S E   E. S E E E E Q.   E E E
|-------------------------|-------------------------|
|-------------------------|-------------------------|
|-----------------7-9p7---|-7-----------------------|
|-5---5-7p5h7-9---------9-|----9p7-5-7-9------------|
|-------------------------|--------------7------5-7-|
|-------------------------|-------------------------|


  G5          C5            G5     C5               G5
  H.          H.            Q.     Q.               H.
  |           |             |      |                |
  /           /             /      /                /

                                                           Gtr II
  W.                        H.                      Q.   E  E  E
|-------------------------|--------------------------------------|
|-------------------------|--------------------------------12h13-|
|-------------------------|--------------------------------------|
|-------------------------|--------------------------------------|
|-------------------------|--------------------------------------|
|-------------------------|--------------------------------------|
|
| Gtrs I, II                                               Gtr I
| ~~          ~~            ~~                      ~~
| Q   E E.S E Q   E E.S E   E. S E E  +S  +S    +E  Q.   E  E  E
|-------------------------|--------------------------------------|
|-------------------------|--------------------------------------|
|-----------------7-9p7---|-7------------------------------------|
|-5---5-7p5h7-9---------9-|----9-5-7--(7)-(7)b9r(7)-5-------9h10-|
|-------------------------|--------------------------------------|
|-------------------------|--------------------------------------|


  G5                   C5                     G5                E5VII
   H.                   H.                     H.                H.
   |                    |                      |                 |
   /                    /                      /                 /

  Gtr II
   ~~~     ~~~                  ~~~                              ~~~
   Q    E  E.     S  E  Q    E  E.     S  E    E. S  E  E  E  E  Q.   E  E  E
|------12--------------12---14-15p====14p12-|---------------------------------|
|-15------15p====12h15----------------------|-15p12---------------------12-13-|
|-------------------------------------------|-------14-12-14-16---------------|
|-------------------------------------------|-------------------14------------|
|-------------------------------------------|---------------------------------|
|-------------------------------------------|---------------------------------|
|
| Gtr I
|  ~~~     ~~~~~~       ~~~     ~~~~~~~        ~~~               ~~~
|  Q    E  E +S   S  E  Q    E  E +S   S  E    E. S  E  E  E  E  Q.   E  E  E
|-------------------------------------------|---------------------------------|
|----------------------------7h=8-(8)p=7----|---------------------------------|
|--7----9--7-(7)-----7--9-----------------9-|--7------------------------------|
|-----------------9-------------------------|-----9--7--5--7--9----------9-10-|
|-------------------------------------------|--------------------7------------|
|-------------------------------------------|---------------------------------|


  G5               C5                 G5        D5               G5
   H.               H.                 Q.        Q.               H.
   |                |                  |         |                |
   /                /                  /         /                /

   ~~~     ~~~      ~~~     ~~~        ~~~                        ~~~
   Q    E  E. S  E  Q    E  E. S  E    E.  S  E  E   +E      +E   Q.   Q.
|------12----------12---14-15p14p12-|---------------------------------------|
|-15------15p12h15------------------|-15--12--------------------------------|
|-----------------------------------|--------12-14--(14)b16r(14)-12---------|
|-----------------------------------|---------------------------------------|
|-----------------------------------|---------------------------------------|
|-----------------------------------|---------------------------------------|
|
|  ~~~     ~~~      ~~~     ~~~        ~~~                        ~~~
|  Q    E  E. S  E  Q    E  E. S  E    E.  S  E  E   +E      +E   Q.   Q.
|-----------------------------------|---------------------------------------|
|------------------------7h=8--7----|---------------------------------------|
|--7----9--7-----7--9-------------9-|--7------------------------------------|
|-------------9---------------------|------9-----7---(7)b9r==(7)--5---------|
|-----------------------------------|--------10-----------------------------|
|-----------------------------------|---------------------------------------|


  D5                        G5V     D5    G5V       A5
  Gtr V
   Q.    Q.    Q.    Q.      Q.      Q.   Q.        Q.
   |           |             |       |    |         |
   /           /             /       /    /         /

  Gtrs I, II                                           Gtr I
   ~~~   ~~~   ~~~   ~~~     ~~~     ~~~  ~~        ~~
                                              |-3-|
   Q  e  Q  e  Q  e  Q  e    E. S E  Q  e Q   S S S E. S E
|-------------------------|--------------------------------|
|-10p=7-10p=7-10p=7-10p=7-|-12p10S8-10p=7-8---7h8p7----7h8-|
|-------------------------|-------------------------9------|
|-------------------------|--------------------------------|
|-------------------------|--------------------------------|
|-------------------------|--------------------------------|


  D5                        G5V     D/F#  Em        A5
   Q.    Q.    Q.    Q.      Q.      Q.   Q.        Q.
   |           |             |       |    |         |
   /           /             /       /    /         /

  Gtrs I, II
   ~~~   ~~~   ~~~   ~~~     ~~~     ~~~  ~~        ~~
                                              |-3-|
   Q  e  Q  e  Q  e  Q  e    E. S E  Q  e Q   S S S Q.
|-------------------------|------------------------------|
|-10p=7-10p=7-10p=7-10p=7-|-12p10S8-10p=7-8---7h8p7------|
|-------------------------|-------------------------9----|
|-------------------------|------------------------------|
|-------------------------|------------------------------|
|-------------------------|------------------------------|


  D5                                 C5
  Q.      Q.      Q.    Q.           Q.     Q.     Q.    Q.
  |               |                  |             |
  /               /                  /             /

  ~~      ~~      ~~                 ~~     ~~     ~~
                             |-3-|
  E.  S E E.  S E Q.   +E  E S S S   E. S E E. S E Q.   +E  E E
|----10------10--------------------|----8------8----------------|
|-7-----7-7-----7-7----(7)-8p7h8p7-|-5----5-5----5-5----(5)---5-|
|----------------------------------|------------------------7---|
|----------------------------------|----------------------------|
|----------------------------------|----------------------------|
|----------------------------------|----------------------------|


  D5    Em    D/F#    G5V            D5     A5            D5
  Q.    Q.     Q.      Q.            Q.     Q.            Q.   Q.
  |     |      |       |             |      |             |
  /     /      /       /             /      /             /

  ~~    ~~     ~~~                   ~~                   ~~
  E.S E E.S E  E.S  E  E.    +S  E   E. S E E. +S     +E  Q.   Q.
|----------------------------------|--------------------------------|
|-7p5h7-8p7h8-10p8h10-10b12r(10)p8-|-7------------------------------|
|----------------------------------|----9p7-9--(9)b11r(9)-7---------|
|----------------------------------|--------------------------------|
|----------------------------------|--------------------------------|
|----------------------------------|--------------------------------|


    D5                        G5V     D5    G5V       A5
     Q.    Q.    Q.    Q.      Q.      Q.   Q.        Q.
     |           |             |       |    |         |
     /           /             /       /    /         /

    Gtr II
     ~~~   ~~~   ~~~   ~~~     ~~~     ~~~  ~~        ~~
                                                |-3-|
     Q  e  Q  e  Q  e  Q  e    E. S E  Q  e Q   S S S E. S S S
||--------------------------|-----------------------------------||
||o-/7-----7-----7-----7----|--8p=7----7-----------------------o||
||------7-----7-----7-----7-|-------9-----7-9---7h9p7-6---------||
||--------------------------|----------------------------9p7----||
||o-------------------------|----------------------------------o||
||--------------------------|-----------------------------------||
|
|   Gtr I
|    ~~~   ~~~   ~~~   ~~~     ~~~     ~~~  ~~        ~~
|                                               |-3-|
|    Q  e  Q  e  Q  e  Q  e    E. S E  Q  e Q   S S S Q.
||--------------------------|-----------------------------------||
||o-10p=7-10p=7-10p=7-10p=7-|-12p10S8-10p=7-8---7h8p7----------o||
||--------------------------|-------------------------9---------||
||--------------------------|-----------------------------------||
||o-------------------------|----------------------------------o||
||--------------------------|-----------------------------------||


  D5                                 C5
  Q.      Q.      Q.    Q.           Q.     Q.     Q.    Q.
  |               |                  |             |
  /               /                  /             /

  ~~      ~~      ~~                 ~~     ~~     ~~
                             |-3-|
  E.  S E E.  S E Q.   +E  E S S S   E. S E E. S E Q.   +E  E E
|----------------------------------|----------------------------|
|-----7-------7--------------------|----5------5----------------|
|-7-----7-7-----7-7----(7)-9p7h9p7-|-5----5-5----5-5----(5)-4-5-|
|----------------------------------|----------------------------|
|----------------------------------|----------------------------|
|----------------------------------|----------------------------|
|
| ~~      ~~      ~~                 ~~     ~~     ~~
|                            |-3-|
| E.  S E E.  S E Q.   +E  E S S S   E. S E E. S E Q.   +E  E E
|----10------10--------------------|----8------8----------------|
|-7-----7-7-----7-7----(7)-8p7h8p7-|-5----5-5----5-5----(5)---5-|
|----------------------------------|------------------------7---|
|----------------------------------|----------------------------|
|----------------------------------|----------------------------|
|----------------------------------|----------------------------|


  D5    Em    D/F#    G5V            D5    A5            D5
  Q.    Q.     Q.      Q.            Q.    Q.            Q.   Q.
  |     |      |       |             |     |             |
  /     /      /       /             /     /             /

  ~~    ~~     ~~~                   ~~                  ~~
  E.S E E.S E  E.S  E  E.    +S  E   E.S E E. +S     +E  Q.   E  E E
|----------------------------------|---------------------------------|
|--------------7p5h=7--7b8r==(7)p5-|-----------------------------7-8-|
|-7p6h7-9p7h9----------------------|-7p4-----------------------------|
|----------------------------------|-----7-5--(5)b7r=(5)-4-----------|
|----------------------------------|---------------------------------|
|----------------------------------|---------------------------------|
|
| ~~    ~~     ~~~                   ~~                  ~~
| E.S E E.S E  E.S  E  E.    +S  E   E.S E E. +S     +E  Q.   E  E E
|----------------------------------|---------------------------------|
|-7p5h7-8p7h8-10p8h10-10b12r(10)p8-|-7-------------------------------|
|----------------------------------|---9p7-9--(9)b11r(9)-7-------7-9-|
|----------------------------------|---------------------------------|
|----------------------------------|---------------------------------|
|----------------------------------|---------------------------------|


  D5      Em       D/F#     G5V             D5       A5               D5
   Q.      Q.       Q.       Q.              Q.       Q.               H.
   |       |        |        |               |        |                |
   /       /        /        /               /        /                /

   ~~~     ~~~      ~~~                      ~~~                       ~~~
   E.S  E  E. S  E  E. S  E  E.    +S   E    E. S  E  E.  +S      +E   H.
|-----------------------------------------|----------------------------------|
|-10p8h10-12p10h12-15p12h15-15b17r(15)p12-|----------------------------------|
|-----------------------------------------|-14p12S11-12--(12)b14r(12)-11-----|
|-----------------------------------------|----------------------------------|
|-----------------------------------------|----------------------------------|
|-----------------------------------------|----------------------------------|
|
|  ~~~     ~~~      ~~~                      ~~~                       ~~~
|  E.S  E  E. S  E  E. S  E  E.    +S   E    E. S  E  E.  +S      +E   H.
|-----------------------------------------|----------------------------------|
|--7p5h=7--8p=7h=8-10p=8h10-10b12r(10)p=8-|--7-------------------------------|
|-----------------------------------------|-----9p=7--9---(9)b11r=(9)--7-----|
|-----------------------------------------|----------------------------------|
|-----------------------------------------|----------------------------------|
|-----------------------------------------|----------------------------------|


 Jig
  D
 4/4
  Gtr I
    |-3-|    |-3-|   |-3-|             |-3-|   |-3-|
  E S S S E  S S S E S S S S S S S   E S S S E S S S S S S S S S S S
|----------------------------------|----------------------------------|
|----------------------------------|----------------------------------|
|---------2--------2---------2-----|---------2---------2--------------|
|-0-4p2p0----4p2p0---4p2p0-2---4p2-|-0-4p2p0---4p2p0-2---4p2p0--------|
|----------------------------------|---------------------------2p0h2--|
|----------------------------------|----------------------------------|
|
| Gtr III
| E E     H.                         W
|----------------------------------|----------------------------------|
|----------------------------------|----------------------------------|
|-7--------------------------------|----------------------------------|
|-7--------------------------------|----------------------------------|
|-5--------------------------------|----------------------------------|
|----------------------------------|----------------------------------|


  D
  Gtr I
  E E     H.                         W
|----------------------------------|---------------------------------|
|----------------------------------|---------------------------------|
|----------------------------------|---------------------------------|
|-0--------------------------------|---------------------------------|
|----------------------------------|---------------------------------|
|----------------------------------|---------------------------------|
|
| Gtr II
|   |-3-|    |-3-|   |-3-|             |-3-|   |-3-|
| E S S S E  S S S E S S S S S S S   E S S S E S S S S S S S S S S S
|----------------------------------|---------------------------------|
|----------------------------------|---------------------------------|
|---------2--------2---------2-----|---------2---------2-------------|
|-0-4p2p0----4p2p0---4-2-0-2---4p2-|-0-4p2p0---4p2p0-2---4p2p0-------|
|----------------------------------|---------------------------2p0h2-|
|----------------------------------|---------------------------------|
|
| Gtr III
| E E     H.                         W
|----------------------------------|---------------------------------|
|----------------------------------|---------------------------------|
|-7--------------------------------|---------------------------------|
|-7--------------------------------|---------------------------------|
|-5--------------------------------|---------------------------------|
|----------------------------------|---------------------------------|


  D
    |-3-|    |-3-|   |-3-|             |-3-|   |-3-|
  E S S S E  S S S E S S S S S S S   E S S S E S S S S S S S S S S S
|----------------------------------|---------------------------------|
|----------------------------------|---------------------------------|
|---------2--------2---------2-----|---------2---------2-------------|
|-0-4p2p0----4p2p0---4p2p0-2---4p2-|-0h4p2p0---4p2p0-2---4p2p0-------|
|----------------------------------|---------------------------2p0h2-|
|----------------------------------|---------------------------------|
|
| E E     H.                         W
|----------------------------------|---------------------------------|
|----------------------------------|---------------------------------|
|----------------------------------|---------------------------------|
|-0--------------------------------|---------------------------------|
|----------------------------------|---------------------------------|
|----------------------------------|---------------------------------|
|
| E E     H.                         W
|----------------------------------|---------------------------------|
|----------------------------------|---------------------------------|
|-7--------------------------------|---------------------------------|
|-7--------------------------------|---------------------------------|
|-5--------------------------------|---------------------------------|
|----------------------------------|---------------------------------|


  D
  E E     H.                         H.                       E   S S
|----------------------------------|----------------------------------|
|----------------------------------|----------------------------------|
|----------------------------------|--------------------------------4-|
|-0--------------------------------|------------------------------7---|
|----------------------------------|----------------------------------|
|----------------------------------|----------------------------------|
|
|   |-3-|    |-3-|   |-3-|              |-3-|   |-3-|
| E S S S E  S S S E S S S S S S S   E  S S S E S S S S S S S S S S S
|----------------------------------|----------------------------------|
|----------------------------------|----------------------------------|
|---------2--------2---------2-----|----------2---------2-------------|
|-0-4p2p0----4p2p0---4p2p0-2---4p2-|-0--4p2p0---4p2p0-2---4p2p0-------|
|----------------------------------|----------------------------2p0h2-|
|----------------------------------|----------------------------------|
|
| E E     H.                         W
|----------------------------------|----------------------------------|
|----------------------------------|----------------------------------|
|-7--------------------------------|----------------------------------|
|-7--------------------------------|----------------------------------|
|-5--------------------------------|----------------------------------|
|----------------------------------|----------------------------------|


  C                               D
  Gtr I
  S S S S E S S S S S S S S S S   S S S S S  S S S S S S S S S S S
|-------------------------------|-----------------------------------|
|-------------------------------|------------5-7-5-7----------------|
|-5-4-5-4-5---4-5-4-------------|---7-7-6-7----------7--------------|
|-----------7-------7-5-4---4-5-|-7--------------------7-5-4---4-5--|
|-------------------------5-----|----------------------------7------|
|-------------------------------|-----------------------------------|
|
| Gtr III
| W                               E   E   H.
|-------------------------------|-----------------------------------|
|-------------------------------|-----------------------------------|
|-5-----------------------------|-7---------------------------------|
|-5-----------------------------|-7---------------------------------|
|-3-----------------------------|-5---------------------------------|
|-------------------------------|-----------------------------------|


  C                               D
  S S S S E S S S S S S S S S S   E S S S  S S S S S S S S S S S
|-------------------------------|--------------------------------|
|-------------------------------|--------------------------------|
|---5-5-4-5---4-5-4-------------|-------4--5-4---7-4-----------4-|
|-7---------7-------7-5-4-5-4---|---4-7--------7-----7-5-4-5-7---|
|-----------------------------7-|-5------------------------------|
|-------------------------------|--------------------------------|
|
| W                               E E   H.
|-------------------------------|--------------------------------|
|-------------------------------|--------------------------------|
|-5-----------------------------|-7------------------------------|
|-5-----------------------------|-7------------------------------|
|-3-----------------------------|-5------------------------------|
|-------------------------------|--------------------------------|

[ Tab from: http://www.guitartabs.cc/tabs/t/thin_lizzy/roisin_dubh_black_rose_a_rock_legend_tab.html ]
  C                               D
  S S S S E S S S S S S S S S S   S S S S S  S S S S S S S S S S S
|-------------------------------|-----------------------------------|
|-------------------------------|------------5-7-5------------------|
|-5-4-5-4-5---4-5-4-------------|---7-7-6-7--------7-5--------------|
|-----------7-------7-5-4-0-4-5-|-7--------------------7-5-4---4-5--|
|-------------------------------|----------------------------7------|
|-------------------------------|-----------------------------------|
|
| W                               E   E   H.
|-------------------------------|-----------------------------------|
|-------------------------------|-----------------------------------|
|-5-----------------------------|-7---------------------------------|
|-5-----------------------------|-7---------------------------------|
|-3-----------------------------|-5---------------------------------|
|-------------------------------|-----------------------------------|


  C                               D
  S S S S E S S S S S S S S S S   E S S S  S S S S S S S S S E
|-------------------------------|------------------------------|
|-------------------------------|------------------------------|
|---4-5-4-5---4-5-4-------------|-------4--5-4---7-4-----------|
|-7---------7-------7-5-4-5-4---|-0-4-7--------7-----7-5-4-5-7-|
|-----------------------------7-|------------------------------|
|-------------------------------|------------------------------|
|
| W                               E E   H.
|-------------------------------|------------------------------|
|-------------------------------|------------------------------|
|-5-----------------------------|-7----------------------------|
|-5-----------------------------|-7----------------------------|
|-3-----------------------------|-5----------------------------|
|-------------------------------|------------------------------|


  D
  Gtr II
    |-3-|    |-3-|   |-3-|             |-3-|   |-3-|
  E S S S E  S S S E S S S S S S S   E S S S E S S S S S S S S S S S
|---------5--------5---------5-----|---------5---------5-------------|
|---7p5------7p5-----7p5---5---7p5-|---7p5-----7p5---5---7p5---------|
|-7-----7--------7-------7---------|-7-----7-------7---------7p4---4-|
|----------------------------------|-----------------------------7---|
|----------------------------------|---------------------------------|
|----------------------------------|---------------------------------|
|
| Gtr I
|   |-3-|    |-3-|   |-3-|             |-3-|   |-3-|
| E S S S E  S S S E S S S S S S S   E S S S E S S S S S S S S S S S
|----------------------------------|---------------------------------|
|----------------------------------|---------------------------------|
|---------2--------2---------2-----|---------2---------2-------------|
|-0-4p2p0----4p2p0---4p2p0h2---4p2-|-0-4p2p0---4p2p0-2---4p2p0-------|
|----------------------------------|---------------------------2p0h2-|
|----------------------------------|---------------------------------|
|
| Gtr III
| E E     H.                         W
|----------------------------------|---------------------------------|
|----------------------------------|---------------------------------|
|-7--------------------------------|---------------------------------|
|-7--------------------------------|---------------------------------|
|-5--------------------------------|---------------------------------|
|----------------------------------|---------------------------------|


  D
    |-3-|    |-3-|   |-3-|             |-3-|   |-3-|
  E S S S E  S S S E S S S S S S S   E S S S E S S S S S S S E S S
|---------5--------5---------5-----|---------5---------5-------5h7--|
|---7p5------7p5-----7p5---5---7p5-|---7p5-----7p5---5---7p5--------|
|-7-----7--------7-------7---------|-7-----7-------7---------7------|
|----------------------------------|--------------------------------|
|----------------------------------|--------------------------------|
|----------------------------------|--------------------------------|
|
|   |-3-|    |-3-|   |-3-|             |-3-|   |-3-|
| E S S S E  S S S E S S S S S S S   E S S S E S S S S S S S E S S
|----------------------------------|--------------------------------|
|----------------------------------|--------------------------------|
|---------2--------2---------2-----|---------2---------2---------4--|
|-0-4p2p0----4p2p0---4p2p0h2---4p2-|-0-4p2p0---4p2p0-2---4p2p0-7----|
|----------------------------------|--------------------------------|
|----------------------------------|--------------------------------|
|
| E E     H.                         W
|----------------------------------|--------------------------------|
|----------------------------------|--------------------------------|
|-7--------------------------------|--------------------------------|
|-7--------------------------------|--------------------------------|
|-5--------------------------------|--------------------------------|
|----------------------------------|--------------------------------|


  C
  S S S S E  S S S S  S S S S S S
|-8-7-8-7-8----7-8-7--------------|
|-----------10-------10-8-7---7-8-|
|---------------------------7-----|
|---------------------------------|
|---------------------------------|
|---------------------------------|
|
| S S S S E  S S S S  S S S S S S
|---------------------------------|
|---------------------------------|
|-5-4-5-4-5----4-5-4--------------|
|------------7--------7-5-4-0-4-5-|
|---------------------------------|
|---------------------------------|
|
| W
|---------------------------------|
|---------------------------------|
|-5-------------------------------|
|-5-------------------------------|
|-3-------------------------------|
|---------------------------------|


  D
   S  S  S  S  S   S  S  S  S  S  S  S  S  S  S  S
|----10-10-10-10--12-14-12-10-----------------------|
|-10--------------------------13-10-----------------|
|-----------------------------------12-11----11-12--|
|-----------------------------------------12--------|
|---------------------------------------------------|
|---------------------------------------------------|
|
|  S  S  S  S  S   S  S  S  S  S  S  S  S  S  S  S
|---------------------------------------------------|
|------------------5--7--5--------------------------|
|-----7--7--7--7------------7--5--------------------|
|--7------------------------------7--5--4--0--4--5--|
|---------------------------------------------------|
|---------------------------------------------------|
|
|  E     E     H.
|---------------------------------------------------|
|---------------------------------------------------|
|--7------------------------------------------------|
|--7------------------------------------------------|
|--5------------------------------------------------|
|---------------------------------------------------|


  C                                  D
   S S S S E  S S S S  S S S S S S   S S S S  S  S S S  S S  S S S  S  E
|----7-8-7-8----7-8-7--------------|-------------7-8-7-10-7---------------|
|-10---------10-------10-8-7---7-8-|-------7-10-------------10-8-7-10-10S=|
|----------------------------7-----|-7-7-7--------------------------------|
|----------------------------------|--------------------------------------|
|----------------------------------|--------------------------------------|
|----------------------------------|--------------------------------------|
|
|  S S S S E  S S S S  S S S S S S   S S S S  S  S S S  S S  S S S  S  E
|----------------------------------|--------------------------------------|
|----------------------------------|--------------------------------------|
|----4-5-4-5----4-5-4--------------|-------------4-5-4--7-4---------------|
|--7----------7--------7-5-4-0-4-5-|-0-0-0-4--7--------------7-5-4--7--7--|
|----------------------------------|--------------------------------------|
|----------------------------------|--------------------------------------|
|
|  W                                 E   E    H.
|----------------------------------|--------------------------------------|
|----------------------------------|--------------------------------------|
|--5-------------------------------|-7------------------------------------|
|--5-------------------------------|-7------------------------------------|
|--3-------------------------------|-5------------------------------------|
|----------------------------------|--------------------------------------|


  C
   S  S  T  T  T  T  S  S  T  T  T  T  S  S  T  T  T  T  S  S  E
|----15-14h15p14h15----15-14h15p14h15----15-14h15p14h15----------|
|-17----------------17----------------17----------------17-15-14-|
|----------------------------------------------------------------|
|----------------------------------------------------------------|
|----------------------------------------------------------------|
|----------------------------------------------------------------|
|
|  S  S  T  T  T  T  S  S  T  T  T  T  S  S  T  T  T  T  S  S  E
|----------------------------------------------------------------|
|-----8--7h=8p=7h=8-----8--7h=8p=7h=8-----8--7h=8p=7h=8----------|
|--9-----------------9-----------------9-----------------9--7--6-|
|----------------------------------------------------------------|
|----------------------------------------------------------------|
|----------------------------------------------------------------|
|
|  W
|----------------------------------------------------------------|
|----------------------------------------------------------------|
|--5-------------------------------------------------------------|
|--5-------------------------------------------------------------|
|--3-------------------------------------------------------------|
|----------------------------------------------------------------|


  A
    S  S  T  T  T  T  S  S  T  T  T  T  S  S  T  T  T  T  S  S  S  S
|-----17-16h17p16h17----17-16h17p16h17----17-16h17p16h17-------------|
|-/17----------------17----------------17----------------17-15-14-15-|
|--------------------------------------------------------------------|
|--------------------------------------------------------------------|
|--------------------------------------------------------------------|
|--------------------------------------------------------------------|
|
|   S  S  T  T  T  T  S  S  T  T  T  T  S  S  T  T  T  T  S  S  S  S
|--------------------------------------------------------------------|
|-----10--9h10p=9h10----10--9h10p=9h10----10--9h10p=9h10-------------|
|--/9-----------------9-----------------9-----------------9--7--6--7-|
|--------------------------------------------------------------------|
|--------------------------------------------------------------------|
|--------------------------------------------------------------------|
|
|   W
|--------------------------------------------------------------------|
|--------------------------------------------------------------------|
|---2----------------------------------------------------------------|
|---2----------------------------------------------------------------|
|---0----------------------------------------------------------------|
|--------------------------------------------------------------------|


  C                             D
   S  S  T  T  T  T  S  S  S  S  S  S  S  S  S  S  S  S
|----15-14h15p14----17-14-15----14----------------14-15-|
|-17-------------17----------17----15-17-14-15-17-------|
|-------------------------------------------------------|
|-------------------------------------------------------|
|-------------------------------------------------------|
|-------------------------------------------------------|
|
|  S  S  T  T  T  T  S  S  S  S  S  S  S  S  S  S  S  S
|-------------------------------------------------------|
|-----8--7h=8p=7----10--7--8-----7-----------------7--8-|
|--9--------------9-----------9-----7--9--6--7--9-------|
|-------------------------------------------------------|
|-------------------------------------------------------|
|-------------------------------------------------------|
|
|  H                             H
|-------------------------------------------------------|
|-------------------------------------------------------|
|--5-----------------------------7----------------------|
|--5-----------------------------7----------------------|
|--3-----------------------------5----------------------|
|-------------------------------------------------------|


   T  T  S  S  S  S  S  S  S  S  S  S  S  S  S  E
|-17p15p14h15----------14-------------------------|
|-------------17-15-14----17-15-------------------|
|-------------------------------17-14-12----------|
|----------------------------------------16-12-12-|
|-------------------------------------------------|
|-------------------------------------------------|
|
|  T  T  S  S  S  S  S  S  S  S  S  S  S  S  S  E
|-------------------------------------------------|
|-10p=8p=7h=8-----------7--5----------------------|
|--------------9--7--6--------7--5----------------|
|-----------------------------------7--5--4--0--0-|
|-------------------------------------------------|
|-------------------------------------------------|
|
|  Q              Q           Q           Q
|-------------------------------------------------|
|-------------------------------------------------|
|-------------------------------------------------|
|-------------------------------------------------|
|--5--------------------------------------5-------|
|-----------------3-----------5-------------------|


  C
   S  S  T  T  T  T  S  S  T  T  T  T  S  S  T  T  T  T  S  S  E
|----15-14h15p14h15----15-14h15p14h15----15-14h15p14h15----------|
|-17----------------17----------------17----------------17-15-14-|
|----------------------------------------------------------------|
|----------------------------------------------------------------|
|----------------------------------------------------------------|
|----------------------------------------------------------------|
|
|  S  S  T  T  T  T  S  S  T  T  T  T  S  S  T  T  T  T  S  S  E
|----------------------------------------------------------------|
|-----8--7h=8p=7h=8-----8--7h=8p=7h=8-----8--7h=8p=7h=8----------|
|--9-----------------9-----------------9-----------------9--7--6-|
|----------------------------------------------------------------|
|----------------------------------------------------------------|
|----------------------------------------------------------------|
|
|  W
|----------------------------------------------------------------|
|----------------------------------------------------------------|
|--5-------------------------------------------------------------|
|--5-------------------------------------------------------------|
|--3-------------------------------------------------------------|
|----------------------------------------------------------------|


  A
   S  S  T  T  T  T  S  S  T  T  T  T  S  S  T  T  T  T  S  S  S  S
|----17-16h17p16h17----17-16h17p16h17----17-16h17p16h17-------------|
|-17----------------17----------------17----------------17-15-14-15-|
|-------------------------------------------------------------------|
|-------------------------------------------------------------------|
|-------------------------------------------------------------------|
|-------------------------------------------------------------------|
|
|  S  S  T  T  T  T  S  S  T  T  T  T  S  S  T  T  T  T  S  S  S  S
|-------------------------------------------------------------------|
|----10--9h10p=9h10----10--9h10p=9h10----10--9h10p=9h10-------------|
|--9-----------------9-----------------9-----------------9--7--6--7-|
|-------------------------------------------------------------------|
|-------------------------------------------------------------------|
|-------------------------------------------------------------------|
|
|  W
|-------------------------------------------------------------------|
|-------------------------------------------------------------------|
|--2----------------------------------------------------------------|
|--2----------------------------------------------------------------|
|--0----------------------------------------------------------------|
|-------------------------------------------------------------------|


  C                                   D
   S  T  T  T  T  S  S  T  T  T  T  S  S  S  S  S  S  S  S  S
|----15p14h15p14----17-14h15p14h15----14----------------14-15-|
|-17-------------17----------------17----15-17-14-15-17-------|
|-------------------------------------------------------------|
|-------------------------------------------------------------|
|-------------------------------------------------------------|
|-------------------------------------------------------------|
|
|  S  T  T  T  T  S  S  T  T  T  T  S  S  S  S  S  S  S  S  S
|-------------------------------------------------------------|
|-----7h=8p=7h=8----10--7h=8p=7h=8-----7-----------------7--8-|
|--9--------------9-----------------9-----7--9--6--7--9-------|
|-------------------------------------------------------------|
|-------------------------------------------------------------|
|-------------------------------------------------------------|
|
|  H                                   H
|-------------------------------------------------------------|
|-------------------------------------------------------------|
|--5-----------------------------------7----------------------|
|--5-----------------------------------7----------------------|
|--3-----------------------------------5----------------------|
|-------------------------------------------------------------|


                                                  Q.=60
                                                   12/8
                                                ~~~~~~~~~
   |--3--|
   S  S  S  S  S  S  S  S  S  S  S  S  S  S  S  E    +W.
|-17p15p14h15----------14-12----------------------|---------|
|-------------17-15-14-------15-13----------------|---------|
|----------------------------------14-12-11-------|---------|
|-------------------------------------------12-12-|-(12)----|
|-------------------------------------------------|---------|
|-------------------------------------------------|---------|
|
|  |--3--|
|  S  S  S  S  S  S  S  S  S  S  S  S  S  S  S  E    +W.
|-------------------------------------------------|---------|
|-10p=8p=7h=8-----------7-------------------------|---------|
|--------------9--7--6-----9--7--5----------------|---------|
|-----------------------------------7--5--4p=0--0-|--(0)----|
|-------------------------------------------------|---------|
|-------------------------------------------------|---------|
|
|  Q              Q           Q           E     E    +W.
|-------------------------------------------------|---------|
|-------------------------------------------------|---------|
|-----------------------------------------------7-|--(7)----|
|-----------------------------------------------7-|--(7)----|
|--5--------------------------------------5-----5-|--(5)----|
|-----------------3-----------5-------------------|---------|


 The slow part
  Q.=60
  G5V      C5        E5VII
 9/8                12/8
  Gtr V
   H.        E  Q      W.
   |         |         |
   /         /         /

  Gtr IV
   TP        TP        TP     TP     TP     TP
   H.        Q.        Q.     Q.     Q.     Q.
|------------------:-----------------------------:
|-15-------/17-----:-/20----\19----\17----\15----:
|------------------:-----------------------------:
|------------------:-----------------------------:
|------------------:-----------------------------:
|------------------:-----------------------------:


  G5V       C5          D5
 9/8                   12/8
    H.        E Q        W.
    |         |          |
    /         /          /

    TP        TP    TP   TP       TP    TP  TP
    H.        Q     E    H.      +Q.    E   Q
|---------------------:--------------------------|
|-\12-------/13---/15-:-\7-------(7)---/8-/10----|
|---------------------:--------------------------|
|---------------------:--------------------------|
|---------------------:--------------------------|
|---------------------:--------------------------|


  G5V              C5          E5VII
 9/8                          12/8
    H.               E Q         W.
    |                |           |
    /                /           /

    TP     TP   TP   TP    TP    TP     TP     TP   TP   TP
                                               |----3----|
    Q.    +E    Q    Q     E     Q.     Q.     Q.   Q.   Q.
|----------------------------:-------------------------------:
|-/12----(12)-\10--/12---/17-:-\15----\12----\10---\8---\5---:
|----------------------------:-------------------------------:
|----------------------------:-------------------------------:
|----------------------------:-------------------------------:
|----------------------------:-------------------------------:


                         Q.=93
  G5V           C5       D5
 9/8                    12/8
   H.            E  Q      W.               +W.
   |             |         |                 |
   /             /         /                 /

                                                          Gtrs I, II
                                             >
   TP    TP  TP  TP        TP                TP
   Q.   +E   Q   Q.        W.               +H.      Q.    Q.
|----------------------|-----------------|-----------------------|
|-\3----(3)-/5--/8-----|-/10-------------|-(10)------------------|
|----------------------|-----------------|-----------------------|
|----------------------|-----------------|-----------------------|
|----------------------|-----------------|-----------------------|
|----------------------|-----------------|----------------10\----|


 Outro
  G                    D
 9/8                  12/8
  Gtrs I, II
                       ~~~~~~~~~~~~~~~~~~
  E. S E E E E E E E   H.      +Q.   +E  E E
|--------------------|-----------------------|
|--------------------|-----------------------|
|--------------------|-----------------------|
|--------------------|-----------------------|
|----------------2-3-|-5-------(5)---(5)-7-9-|
|-3--3-3-3-2-3-5-----|-----------------------|


  G                     Em/B
 9/8                   12/8
                         ~~~~~~~~~~~~~~~~~~
  E S S E E E E E E E    H.      +Q.   +E  E E
|---------------------|--------------------------|
|---------------------|--------------------------|
|---------------------|--------------------------|
|-5-5-5-5-5-4---------|--------------------------|
|-------------7-5-7-5-|--------------------------|
|---------------------|-/7-------(7)---(7)-0-2---|


  G                    D
 9/8                  12/8
  Gtr II
                       ~~~~~~~~~~~~~~~~~~
  E. S E E E E E E E   H.      +Q.   +E  E E
|--------------------|-----------------------|
|--------------------|-----------------------|
|--------------------|-----------------------|
|--------------------|-------------------5-7-|
|----------------5-7-|-9-------(9)---(9)-----|
|-7--7-7-7-5-7-8-----|-----------------------|
|
| Gtr I
|                      ~~~~~~~~~~~~~~~~~~
| E. S E E E E E E E   H.      +Q.   +E  E E
|--------------------|-----------------------|
|--------------------|-----------------------|
|--------------------|-----------------------|
|--------------------|-------------------2-4-|
|----------------2-3-|-5-------(5)---(5)-----|
|-3--3-3-3-2-3-5-----|-----------------------|


  G                     Em/B
 9/8                   12/8
                        ~~~~~~~~~~~~~~~~~~
  E S S E E E E E E E   H.      +Q.   +E  E E
|---------------------|-------------------------|
|---------------------|-------------------------|
|---------------------|-------------------------|
|-9-9-9-9-9-7-5-4-5-4-|-------------------------|
|---------------------|-7-------(7)---(7)-------|
|---------------------|-------------------3-5---|
|
|                       ~~~~~~~~~~~~~~~~~~
| E S S E E E E E E E   H.      +Q.   +E  E E
|---------------------|-------------------------|
|---------------------|-------------------------|
|---------------------|-------------------------|
|-5-5-5-5-5-4---------|-------------------------|
|-------------7-5-7-5-|-2-------(2)---(2)-------|
|---------------------|-------------------0-2---|


  G                    D
 9/8                  12/8
  Gtr II
                       ~~~~~~~~~~~~~~~~~~
  E. S E E E E E E E   H.      +Q.   +E  E E
|--------------------|-----------------------|
|--------------------|---------------------7-|
|----------------4-5-|-7-------(7)---(7)-9---|
|-5--5-5-5-4-5-7-----|-------------------5-7-|
|----------------5-7-|-9-------(9)---(9)-----|
|-7--7-7-7-5-7-8-----|-----------------------|
| E. S E E E E E E E   H.      +Q.   +E  E E
|      |
|
| Gtr I
|                      ~~~~~~~~~~~~~~~~~~
| E. S E E E E E E E   H.      +Q.   +E  E E
|--------------------|-----------------------|
|--------------------|-----------------------|
|--------------------|-----------------------|
|--------------------|---------------------4-|
|----------------2-3-|-5-------(5)---(5)-7---|
|-3--3-3-3-2-3-5-----|-----------------------|


  G                      Em/B
 9/8                    12/8
                          ~~~~~~~~~~~~~~~~~~
  E  S S E E E E E E E    H.      +Q.   +E  E E
|----------------------|--------------------------|
|-8--8-8-8-8-7---------|--------------------------|
|--------------9-7-9-7-|--------------------------|
|-9--9-9-9-9-7-5-4-5-4-|--9-------(9)---(9)---4---|
|----------------------|--7-------(7)---(7)-7-----|
|----------------------|--------------------3-5---|
| E  S S E E E E E E E    H.      +Q.   +E  E E
|
|                         ~~~~~~~~~~~~~~~~~~
| E.   S E E E E E E E    H.      +Q.   +E  E E
|----------------------|--------------------------|
|----------------------|--------------------------|
|----------------------|--------------------------|
|-5----5-5-5-4---------|--------------------------|
|--------------7-5-7-5-|--------------------------|
|----------------------|-/7-------(7)---(7)-0-2---|


  G                      D
 9/8                    12/8
  Gtr III
  ~~~~~~~~~~~                                   ~~~~~~~~
  Q.     +Q    E E E E   E  E E  E E E  E  E E +Q.
|----------------------|-------------------------------|
|----------------------|-7------10------7--------------|
|--------------4-7-7-9-|----7-7----7-7-----7-7-(7)-----|
|-5------(5)-----------|-------------------------------|
|----------------------|-------------------------------|
|----------------------|-------------------------------|
|
| Gtr II
|                        ~~~~~~~~~~~~~~~~~~~~~~~~~~
| E. S E  E  E E E E E   H.            +Q.     +E  E E
|----------------------|-------------------------------|
|----------------------|-----------------------------7-|
|------------------4-5-|-7-------------(7)-----(7)-9---|
|-5--5-5--5--4-5-7-----|---------------------------5-7-|
|------------------5-7-|-9-------------(9)-----(9)-----|
|-7--7-7--7--5-7-8-----|-------------------------------|
| E. S E  E  E E E E E   H.            +Q.     +E  E E
|      |
|
| Gtr I
|                        ~~~~~~~~~~~~~~~~~~~~~~~~~~
| E. S E  E  E E E E E   H.            +Q.     +E  E E
|----------------------|-------------------------------|
|----------------------|-------------------------------|
|----------------------|-------------------------------|
|----------------------|-----------------------------4-|
|------------------2-3-|-5-------------(5)-----(5)-7---|
|-3--3-3--3--2-3-5-----|-------------------------------|


  G                              Em/B
 9/8                            12/8
 ~~~~~                            ~~~~~~~             ~~~
  +H.              E     +E  E    Q.   Q  E  E   E E  Q.
|------------------------------|-------------------------------|
|-----------------10b12r(10)-8-|-------------------------------|
|-(7)--------------------------|--7----7--7--9-----9--7--------|
|------------------------------|----------------10-------------|
|------------------------------|-------------------------------|
|------------------------------|-------------------------------|
|
|                                 ~~~~~~~~~~~~~~~~~~~~~~~
|  E  S S E E E E  E      E  E    H.        +Q.      +E  E E
|------------------------------|-------------------------------|
|--8--8-8-8-8-7----------------|-------------------------------|
|---------------9--7------9--7-|-------------------------------|
|--9--9-9-9-9-7-5--4------5--4-|--9---------(9)------(9)---4---|
|------------------------------|--7---------(7)------(7)-7-----|
|------------------------------|-------------------------3-5---|
|  E  S S E E E E  E      E  E    H.        +Q.      +E  E E
|
|                                 ~~~~~~~~~~~~~~~~~~~~~~~
|  E  S S E E E E  E      E  E    H.        +Q.      +E  E E
|------------------------------|-------------------------------|
|------------------------------|-------------------------------|
|------------------------------|-------------------------------|
|--5--5-5-5-5-4----------------|-------------------------------|
|---------------7--5------7--5-|-------------------------------|
|------------------------------|-/7---------(7)------(7)-0-2---|


  G                       D
 9/8                     12/8
   ~~~~~~~~~~~~~~~~~
                                                     |--3--|
  +H.           +Q    E    E   E  E  E  E  E  E   E  S  S  S  E   E  E
|-----------------------|-----------14-------17--15-14h15p14-----------|
|-----------------------|-15--15-15----15-15-----------------17--15-17-|
|-(7)-----------(7)-----|----------------------------------------------|
|-----------------------|----------------------------------------------|
|-----------------------|----------------------------------------------|
|-----------------------|----------------------------------------------|
|
| Gtr II
|                          ~~~~~~~~~~~~~~~~~~~~~~~~~~~~~~~~~~~~~~
|  E. S E E E E  E  E E    H.                +Q.             +E   E  E
|-----------------------|----------------------------------------------|
|-----------------------|--------------------------------------------7-|
|-------------------4-5-|--7-----------------(7)-------------(7)--9----|
|--5--5-5-5-4-5--7------|-----------------------------------------5--7-|
|-------------------5-7-|--9-----------------(9)-------------(9)-------|
|--7--7-7-7-5-7--8------|----------------------------------------------|
|  E. S E E E E  E  E E    H.                +Q.             +E   E  E
|       |
|
| Gtr I
|                          ~~~~~~~~~~~~~~~~~~~~~~~~~~~~~~~~~~~~~~
|  E. S E E E E  E  E E    H.                +Q.             +E   E  E
|-----------------------|----------------------------------------------|
|-----------------------|----------------------------------------------|
|-----------------------|----------------------------------------------|
|-----------------------|--------------------------------------------4-|
|-------------------2-3-|--5-----------------(5)-------------(5)--7----|
|--3--3-3-3-2-3--5------|----------------------------------------------|


  G                              Em/B
 9/8                            12/8
   ~~~~~~
   H.                 +Q.         E   E  E  E     +E   E  E   E  E  E   E  E
|------------------------------|-----12-14-14b15-(14)-12-14-----12-----------|
|------------------------------|-----------------------------15----12--15----|
|-14b16==============(14)r-----|------------------------------------------14-|
|------------------------------|---------------------------------------------|
|------------------------------|---------------------------------------------|
|------------------------------|---------------------------------------------|
|
|                                 ~~~~~~~~~~~~~~~~~~~~~~~~~~~~~~~~~~~~~
|  E     S S E E E E   E   E E    H.                     +Q.       +E   E  E
|------------------------------|---------------------------------------------|
|--8-----8-8-8-8-7-------------|---------------------------------------------|
|------------------9---7---9-7-|---------------------------------------------|
|--9-----9-9-9-9-7-5---4---5-4-|--9----------------------(9)-------(9)-----4-|
|------------------------------|--7----------------------(7)-------(7)--7----|
|------------------------------|----------------------------------------3--5-|
|  E     S S E E E E   E   E E    H.                     +Q.       +E   E  E
|
|                                 ~~~~~~~~~~~~~~~~~~~~~~~~~~~~~~~~~~~~~
|  E     S S E E E E   E   E E    H.                     +Q.       +E   E  E
|------------------------------|---------------------------------------------|
|------------------------------|---------------------------------------------|
|------------------------------|---------------------------------------------|
|--5-----5-5-5-5-4-------------|---------------------------------------------|
|------------------7---5---7-5-|---------------------------------------------|
|------------------------------|-/7----------------------(7)-------(7)--0--2-|


  G                        D
 9/8                      12/8
   ~~~~~~~~~~~~~~~~~~
                                                    |--3--|
   H.            +Q.        +E   E  E  E  E  E  E   S  S  S  E  E   +E      +E
|------------------------|------------------------------------------------------|
|------------------------|---------------12-13-12--10h12p10---------------------|
|-12------------(12)-----|-(12)-11-12-14--------------------12-11--(11)b12r(11)-|
|------------------------|------------------------------------------------------|
|------------------------|------------------------------------------------------|
|------------------------|------------------------------------------------------|
|
| Gtr II
|                            ~~~~~~~~~~~~~~~~~~~~~~~~~~~~~~~~~~~~~~
|  E. S E E E E   E  E E     H.                +Q.             +E    E       E
|------------------------|------------------------------------------------------|
|------------------------|---------------------------------------------------7--|
|--------------------4-5-|---7-----------------(7)-------------(7)---9----------|
|--5--5-5-5-4-5---7------|-------------------------------------------5-------7--|
|--------------------5-7-|---9-----------------(9)-------------(9)--------------|
|--7--7-7-7-5-7---8------|------------------------------------------------------|
|  E. S E E E E   E  E E     H.                +Q.             +E    E       E
|       |
|
| Gtr I
|                            ~~~~~~~~~~~~~~~~~~~~~~~~~~~~~~~~~~~~~~
|  E. S E E E E   E  E E     H.                +Q.             +E    E       E
|------------------------|------------------------------------------------------|
|------------------------|------------------------------------------------------|
|------------------------|------------------------------------------------------|
|------------------------|---------------------------------------------------4--|
|--------------------2-3-|---5-----------------(5)-------------(5)---7----------|
|--3--3-3-3-2-3---5------|------------------------------------------------------|


  G                        Em/B
 9/8                      12/8
  ~~
  H.             +Q.        E   Q       Q   E  E   E E  E  E E
|------------------------|-------------------------------------|
|------------------------|-----10b12===10--10-10r-10-8--7------|
|------------------------|---------------------------------9---|
|-9--------------(9)-----|-----------------------------------9-|
|------------------------|-------------------------------------|
|------------------------|-------------------------------------|
|
|                           ~~~~~~~~~~~~~~~~~~~~~~~~~~~~~~~
| E  S S E E E E  E  E E    H.                +Q.      +E  E E
|------------------------|-------------------------------------|
|-8--8-8-8-8-7-----------|-------------------------------------|
|--------------9--7--9-7-|-------------------------------------|
|-9--9-9-9-9-7-5--4--5-4-|--9-----------------(9)------(9)---4-|
|------------------------|--7-----------------(7)------(7)-7---|
|------------------------|---------------------------------3-5-|
| E  S S E E E E  E  E E    H.                +Q.      +E  E E
|
|                           ~~~~~~~~~~~~~~~~~~~~~~~~~~~~~~~
| E  S S E E E E  E  E E    H.                +Q.      +E  E E
|------------------------|-------------------------------------|
|------------------------|-------------------------------------|
|------------------------|-------------------------------------|
|-5--5-5-5-5-4-----------|-------------------------------------|
|--------------7--5--7-5-|-------------------------------------|
|------------------------|-/7-----------------(7)------(7)-0-2-|


  G                    D
 9/8                  12/8
  ~~                   ~~~~~~~~~~~~~~~~~~~~~~~~~~
  H.           Q   E   Q.    Q.    Q.    Q.
|--------------------|--------------------------|
|--------------8-----|-------------------7------|
|-7------------7---7-|-7b9---5-----9------------|
|--------------------|--------------------------|
|--------------------|--------------------------|
|--------------------|--------------------------|
|
| Gtr II
|                      ~~~~~~~~~~~~~~~~~~~~~
| E. S E E E E E E E   H.         +Q.   +E  E E
|--------------------|--------------------------|
|--------------------|------------------------7-|
|----------------4-5-|-7----------(7)---(7)-9---|
|-5--5-5-5-4-5-7-----|----------------------5-7-|
|----------------5-7-|-9----------(9)---(9)-----|
|-7--7-7-7-5-7-8-----|--------------------------|
| E. S E E E E E E E   H.         +Q.   +E  E E
|      |
|
| Gtr I
|                      ~~~~~~~~~~~~~~~~~~~~~
| E. S E E E E E E E   H.         +Q.   +E  E E
|--------------------|--------------------------|
|--------------------|--------------------------|
|--------------------|--------------------------|
|--------------------|------------------------4-|
|----------------2-3-|-5----------(5)---(5)-7---|
|-3--3-3-3-2-3-5-----|--------------------------|


  G                            Em/B
 9/8                          12/8
 ~~~~                 ~~~~~~~~~~~~~~   ~~
  Q.        Q.        Q.        +Q   E H.         +Q.
|----------------------------|------------------------------|
|-8--------10b12r====10------|-(10)--8-8----------(8)-------|
|----------------------------|------------------------------|
|----------------------------|------------------------------|
|----------------------------|------------------------------|
|----------------------------|------------------------------|
|
|                                ~~~~~~~~~~~~~~~~~~~~~
| E  S S E  E    E E  E  E E     H.         +Q.   +E  E E
|----------------------------|------------------------------|
|-8--8-8-8--8----7-----------|------------------------------|
|------------------9--7--9-7-|------------------------------|
|-9--9-9-9--9----7-5--4--5-4-|---9----------(9)---(9)---4---|
|----------------------------|---7----------(7)---(7)-7-----|
|----------------------------|------------------------3-5---|
| E  S S E  E    E E  E  E E     H.         +Q.   +E  E E
|
|                                ~~~~~~~~~~~~~~~~~~~~~
| E  S S E  E    E E  E  E E     H.         +Q.   +E  E E
|----------------------------|------------------------------|
|----------------------------|------------------------------|
|----------------------------|------------------------------|
|-5--5-5-5--5----4-----------|------------------------------|
|------------------7--5--7-5-|------------------------------|
|----------------------------|--/7----------(7)---(7)-0-2---|


  G                     D
 9/8                   12/8
                                                 ~~~~~~~~
  H.           Q.       E  E E S S E E  E  E E   Q.
|---------------------|---------------------------------|
|---------------------|----------7-8----7---------------|
|---------------------|----7-7-9-----9-----7-9-/12------|
|---------------------|---------------------------------|
|---------------------|---------------------------------|
|---------------------|---------------------------------|
|
| Gtr II
|                       ~~~~~~~~~~~~~~~~~~~~~~~~~~~~
| E. S E E E E E  E E   H.             +Q.      +E  E E
|---------------------|---------------------------------|
|---------------------|-------------------------------7-|
|-----------------4-5-|-7--------------(7)------(7)-9---|
|-5--5-5-5-4-5-7------|-----------------------------5-7-|
|-----------------5-7-|-9--------------(9)------(9)-----|
|-7--7-7-7-5-7-8------|---------------------------------|
| E. S E E E E E  E E   H.             +Q.      +E  E E
|      |
|
| Gtr I
|                       ~~~~~~~~~~~~~~~~~~~~~~~~~~~~
| E. S E E E E E  E E   H.             +Q.      +E  E E
|---------------------|---------------------------------|
|---------------------|---------------------------------|
|---------------------|---------------------------------|
|---------------------|-------------------------------4-|
|-----------------2-3-|-5--------------(5)------(5)-7---|
|-3--3-3-3-2-3-5------|---------------------------------|


  G                        Em/B
 9/8                      12/8
 ~~~~~~
   +H.             Q   E    E  E  E  E E E  E  E E  E  E E
|------------------------|----------------------------------|
|------------------------|----------------------------------|
|-(12)-----------------9-|-12--9-11-12-9-7--9--7----7-------|
|------------------------|-----------------------9-----9-7--|
|------------------------|----------------------------------|
|------------------------|----------------------------------|
|
|                           ~~~~~~~~~~~~~~~~~~~~~~~~~~~
|   E  S S E E E E E E E    H.             +Q.     +E  E E
|------------------------|----------------------------------|
|---8--8-8-8-8-7---------|----------------------------------|
|----------------9-7-9-7-|----------------------------------|
|---9--9-9-9-9-7-5-4-5-4-|--9--------------(9)-----(9)---4--|
|------------------------|--7--------------(7)-----(7)-7----|
|------------------------|-----------------------------3-5--|
|   E  S S E E E E E E E    H.             +Q.     +E  E E
|
|                           ~~~~~~~~~~~~~~~~~~~~~~~~~~~
|   E  S S E E E E E E E    H.             +Q.     +E  E E
|------------------------|----------------------------------|
|------------------------|----------------------------------|
|------------------------|----------------------------------|
|---5--5-5-5-5-4---------|----------------------------------|
|----------------7-5-7-5-|----------------------------------|
|------------------------|-/7--------------(7)-----(7)-0-2--|


  G                      D
 9/8                    12/8
  ~~
  H.           +Q.       E   Q       +Q    E  E   Q      Q        E
|----------------------|----17b19===(17)--17-17r-17b19--17b19====17r-|
|----------------------|---------------------------------------------|
|----------------------|---------------------------------------------|
|-5------------(5)-----|---------------------------------------------|
|----------------------|---------------------------------------------|
|----------------------|---------------------------------------------|
|
| Gtr II
|                        ~~~~~~~~~~~~~~~~~~~~~~~~~~~~~~~~~~~~~~
| E. S E E E E  E  E E   H.                  +Q.        +E     E  E
|----------------------|---------------------------------------------|
|----------------------|------------------------------------------7--|
|------------------4-5-|-7-------------------(7)--------(7)----9-----|
|-5--5-5-5-4-5--7------|---------------------------------------5--7--|
|------------------5-7-|-9-------------------(9)--------(9)----------|
|-7--7-7-7-5-7--8------|---------------------------------------------|
| E. S E E E E  E  E E   H.                  +Q.        +E     E  E
|      |
|
| Gtr I
|                        ~~~~~~~~~~~~~~~~~~~~~~~~~~~~~~~~~~~~~~
| E. S E E E E  E  E E   H.                  +Q.        +E     E  E
|----------------------|---------------------------------------------|
|----------------------|---------------------------------------------|
|----------------------|---------------------------------------------|
|----------------------|------------------------------------------4--|
|------------------2-3-|-5-------------------(5)--------(5)----7-----|
|-3--3-3-3-2-3--5------|---------------------------------------------|


  G                                     Em/B
 9/8                                   12/8
                               ~~~~~~~~~~~~~~
                                                        |--3--|         |--3--|
   Q         E      +Q     E  +Q.        +E   E   E  E  S  S  S  E  E   S  S  S  E  E   E  E
|-17b19-----17b19==(17)---17-(17)-----|-(17)-17r-15-17-15h17p15-14-15--14h15p14----14----------|
|-------------------------------------|-----------------------------------------17-----17-15---|
|-------------------------------------|--------------------------------------------------------|
|-------------------------------------|--------------------------------------------------------|
|-------------------------------------|--------------------------------------------------------|
|-------------------------------------|--------------------------------------------------------|
|
|                                         ~~~~~~~~~~~~~~~~~~~~~~~~~~~~~~~~~~~~~~~~~~~~~
|  E    S S  E       E  E  E   E  E E     H.                       +Q.             +E   E  E
|-------------------------------------|--------------------------------------------------------|
|--8----8-8--8-------8--7-------------|--------------------------------------------------------|
|--------------------------9---7--9-7-|--------------------------------------------------------|
|--9----9-9--9-------9--7--5---4--5-4-|---9------------------------(9)-------------(9)-----4---|
|-------------------------------------|---7------------------------(7)-------------(7)--7------|
|-------------------------------------|-------------------------------------------------3--5---|
|  E    S S  E       E  E  E   E  E E     H.                       +Q.             +E   E  E
|
|                                         ~~~~~~~~~~~~~~~~~~~~~~~~~~~~~~~~~~~~~~~~~~~~~
|  E    S S  E       E  E  E   E  E E     H.                       +Q.             +E   E  E
|-------------------------------------|--------------------------------------------------------|
|-------------------------------------|--------------------------------------------------------|
|-------------------------------------|--------------------------------------------------------|
|--5----5-5--5-------5--4-------------|--------------------------------------------------------|
|--------------------------7---5--7-5-|--------------------------------------------------------|
|-------------------------------------|--/7------------------------(7)-------------(7)--0--2---|


  G                            D
 9/8                          12/8
   ~~~~~~~~~~~~~~~~~~~~~~                  ~~~~~~~~~~~~~~
   H.               +Q.        Q.   Q   E  H.
|----------------------------|--------------------------|
|-15b17============(15)r-----|--------------------------|
|----------------------------|--------------------------|
|----------------------------|------9--10-12------------|
|----------------------------|--------------------------|
|----------------------------|--------------------------|
|
| Gtr II
|                              ~~~~~~~~~~~~~~~~~~~~~
|  E.    S E E E E   E   E E   H.         +Q.   +E  E E
|----------------------------|--------------------------|
|----------------------------|------------------------7-|
|------------------------4-5-|-7----------(7)---(7)-9---|
|--5-----5-5-5-4-5---7-------|----------------------5-7-|
|------------------------5-7-|-9----------(9)---(9)-----|
|--7-----7-7-7-5-7---8-------|--------------------------|
|  E.    S E E E E   E   E E   H.         +Q.   +E  E E
|          |
|
| Gtr I
|                              ~~~~~~~~~~~~~~~~~~~~~
|  E.    S E E E E   E   E E   H.         +Q.   +E  E E
|----------------------------|--------------------------|
|----------------------------|--------------------------|
|----------------------------|--------------------------|
|----------------------------|------------------------4-|
|------------------------2-3-|-5----------(5)---(5)-7---|
|--3-----3-3-3-2-3---5-------|--------------------------|


  G                            Em/B
 9/8                          12/8
 ~~~~~~                         ~~~
   +Q       E Q    E  Q.        H.       Q    E  +Q     E
|----------------------------|------------------------------*|
|----------------------------|-12-------12---10-(10)--------*|
|-------------9---11-12------|-------------------------12---*|
|-(12)-----12----------------|------------------------------*|
|----------------------------|------------------------------*|
|----------------------------|------------------------------*|
|
|                               ~~~~~~~~~~~~~~~~~~~~~
|   E  S S  E E E  E  E  E E    H.      +Q.      +E  E  E
|----------------------------|------------------------------*|
|---8--8-8--8-8-7------------|------------------------------*|
|------------------9--7--9-7-|------------------------------*|
|---9--9-9--9-9-7--5--4--5-4-|--9-------(9)------(9)----4---*|
|----------------------------|--7-------(7)------(7)-7------*|
|----------------------------|-----------------------3--5---*|
|   E  S S  E E E  E  E  E E    H.      +Q.      +E  E  E
|
|                               ~~~~~~~~~~~~~~~~~~~~~
|   E  S S  E E E  E  E  E E    H.      +Q.      +E  E  E
|----------------------------|------------------------------*|
|----------------------------|------------------------------*|
|----------------------------|------------------------------*|
|---5--5-5--5-5-4------------|------------------------------*|
|------------------7--5--7-5-|------------------------------*|
|----------------------------|-/7-------(7)------(7)-0--2---*|


Duration Legend
---------------
W - whole; H - half; Q - quarter; E - 8th; S - 16th; T - 32nd; X - 64th; a - acciaccatura
+ - note tied to previous; . - note dotted; .. - note double dotted
Uncapitalized letters represent notes that are staccato (1/2 duration)
Irregular groupings are notated above the duration line
Duration letters will always appear directly above the note/fret number it represents the
duration for.  Duration letters with no fret number below them represent rests.  Multi-
bar rests are notated in the form Wxn, where n is the number of bars to rest for.  Low
melody durations appear below the staff

Tablature Legend
----------------
 h   - hammer-on
 p   - pull-off
 b   - bend
 pb  - pre-bend
 r   - bend release (if no number after the r, then release immediately)
 /\  - slide into or out of (from/to "nowhere")
 s   - legato slide
 S   - shift slide
  - natural harmonic
[n]  - artificial harmonic
n(n) - tapped harmonic
 ~   - vibrato
 tr  - trill
 T   - tap
 TP  - trem. picking
 PM  - palm muting
\n/  - tremolo bar dip; n = amount to dip
 \n  - tremolo bar down
 n/  - tremolo bar up
/n\  - tremolo bar inverted dip
 =   - hold bend; also acts as connecting device for hammers/pulls
   - volume swell (louder/softer)
 x   - on rhythm slash represents muted slash
 o   - on rhythm slash represents single note slash

Misc Legend
-----------
 |  - bar
||  - double bar
||o - repeat start
o|| - repeat end
*|  - double bar (ending)
 :  - bar (freetime)
 $  - Segno
 &  - Coda
Tempo markers -  = BPM(8/16=s8/s16), where s8 = swing 8ths, s16 = swing 16ths


***************************************************************************************
* Generated using Power Tab Editor by Brad Larsen - http://powertab.guitarnetwork.org *
***************************************************************************************
Comments