Thin Lizzy - Renegade Chords & Tabs

 

Renegade Chords & Tabs

Thin Lizzy Chords & Tabs

Version: 1 Type: Bass Tab 0 ratings
1 star 2 stars 3 stars 4 stars 5 stars
comments

Renegade Bass Tab

Thin Lizzy - Renegade (from the album of the same title)
- by Alex Huth

Main part: (intro & verses & kinda chorus)

G|----------------------------------------------------
D|----------------------------------------------------
A|-5-5---2-2--0-0---------2-2---0-0--------5-5--2-2---
E|-----------------3-3---------------3-3--------------

G|----------------------------------------------------
D|----------------------2-2---------------------------
A|-0-0--------5-5---2-2-------------------------------
E|------3-3-------------------------------------------
[ Tab from: http://www.guitartabs.cc/tabs/t/thin_lizzy/renegade_btab.html ]
Variation:
G|----------------------------------------------------
D|-------------------------0----------0---------------
A|-5-5---2-2--0-0------2-4--------2-4-----------------
E|-----------------3-3--------3-3---------------------

Goes on the same...

Till the kinda rocky part with the guitar!!

G|----------------------------------------------------
D|----------------------------------------------------
A|----------------------------------------------------
E|-3---2-----3---2-0----------------------------------

And sometimes (after the first time) it modulates to:

G|----------------------------------------------------
D|----------------------------------------------------
A|-3---2-----3---2-0----------------------------------
E|----------------------------------------------------

And that's it!  Knock yourself out...
Comments