Thin Lizzy - Massacre Chords & Tabs

 

Massacre Chords & Tabs

Thin Lizzy Chords & Tabs

Version: 1 Type: Tab 0 ratings
1 star 2 stars 3 stars 4 stars 5 stars
comments

Massacre Tab

Artist	Thin Lizzy
Title	Massacre
Album	Johnny The Fox


Intro (00.00 - 00.14)

|-----------------------|----------------------|
|-10h8------------------|-10h8-----------10h8--|
|-----10-10-10-10h9p10--|-----10-10-10-10------|  x2 (neck position is wrong i think)
|-----------------------|----------------------|
|-----------------------|----------------------|
|-----------------------|----------------------|


Riff 1 (00.15 - 00.30)

|----------------------------------------------|
|----------------------------------------------|
|----------------------------------------------| repeat as necessary
|------------4-----4-----4-----4---------------|
|--4-4h666666-66666-66666-66666--4-4h6---------|
|-6-6---------------------------6-6------------|


Verse 1 (00.30 - 00.58) Power Chords

|----------------------------------------------|
|----------------------------------------------|
|-8--------6---------11------------------------| Listen to song to match chord placement
|-8--------6---------11--------8---------------|
|-6--------4---------9---------8---------------|
|------------------------------6---------------|


Riff 1 (00.58 - 01.13)

|----------------------------------------------|
|----------------------------------------------|
|----------------------------------------------| repeat as necessary
|------------4-----4-----4-----4---------------|
|--4-4h666666-66666-66666-66666--4-4h6---------|
|-6-6---------------------------6-6------------|


Verse 2 (01.13 - 01.40) Power Chords
[ Tab from: http://www.guitartabs.cc/tabs/t/thin_lizzy/massacre_tab.html ]
|----------------------------------------------|
|----------------------------------------------|
|-8--------6---------11------------------------| Listen to song to match chord placement
|-8--------6---------11--------8---------------|
|-6--------4---------9---------8---------------|
|------------------------------6---------------|


Intro 2 (01.40 - 01.55)

|-----------------------|----------------------|
|-10h8------------------|-10h8-----------10h8--|
|-----10-10-10-10h9p10--|-----10-10-10-10------|  x2 (neck position is wrong i think)
|-----------------------|----------------------|
|-----------------------|----------------------|
|-----------------------|----------------------|

Solo (01.55 - 02.18)


If anybody can work out the solo, please email me
	

	EMAIL - wrostle@yahoo.com


Verse 3 (02.18 - 02.44) Power Chords

|----------------------------------------------|
|----------------------------------------------|
|-8--------6---------11------------------------| Listen to song to match chord placement
|-8--------6---------11--------8---------------|
|-6--------4---------9---------8---------------|
|------------------------------6---------------|


Riff 1 (02.44 - 02.58)

|----------------------------------------------|
|----------------------------------------------|
|----------------------------------------------| repeat till the end
|------------4-----4-----4-----4---------------|
|--4-4h666666-66666-66666-66666--4-4h6---------|
|-6-6---------------------------6-6------------|


Any changes or additions,would be much appreciated. Enjoy whats there now though.
Other Songs on the way: Rosalie(need help with solo), Running Back, Angel From The Coast.

Philip,i'm not a real farmer

wrostle@yahoo.com
Comments