Thin Lizzy - Kings Vengeance Chords & Tabs

 

Kings Vengeance Chords & Tabs

Thin Lizzy Chords & Tabs

Version: 1 Type: Tab 0 ratings
1 star 2 stars 3 stars 4 stars 5 stars
comments

Kings Vengeance Tab

#----------------------------------PLEASE NOTE---------------------------------#
#This file is the author's own work and represents their interpretation of the #
#song. You may only use this file for private study, scholarship, or research. #
#------------------------------------------------------------------------------#
#----------------------------------PLEASE NOTE---------------------------------#
#This file is the author's own work and represents their interpretation of the #
#song. You may only use this file for private study, scholarship, or research. #
#------------------------------------------------------------------------------#
Date: 3. june 2004 | 15.30

From: Idar "Wild One" Wiik (Cheabz) (idarwiik@hotmail.com)

Song:   King's Vengeance
Artist: Thin Lizzy
Album:  Fighting (released: 1975)
Lyrics: Provided by www.sing365.com

Tuning: EADGBe (normal)


Hey.
This is quite hard to explain how to play, but with a little goodwill I'm sure you'll get it.
There's two guitars (of course, since it's Lizzy), and I haven't tabbed them both
compleately. Though Riff 2 is played by guitar 2, and riff 3 by guitar 1. 
I hope you can figure it out...I understand if you find it hard, but its correct (I guess), and 
if you have any unanswered questions, send them to me. 


Riff 1
e|--/12--10--8---7--8---10--12--10--8---7--7---|
B|--/13--12--10--8--10--12--13--12--10--8--8---|
G|---------------------------------------------|
D|---------------------------------------------|
A|---------------------------------------------|
E|---------------------------------------------|

Riff 2
e|--10-10-10-10---------------------------|-10-10-10-10---------------------------|
B|--10-10-10-10-12-10-8-7-7-8/10-10-10-10-|-10-10-10-10-12-10-8-------------------|
G|--------------11-9--7-7-7-7/9--9--9--9--|-------------11-9--7-9--9-9-9-9-9--11--|
D|----------------------------------------|---------------------------------------|
A|----------------------------------------|---------------------------------------|
E|----------------------------------------|---------------------------------------|
  \--------------------------------------/
               x3
[ Tab from: http://www.guitartabs.cc/tabs/t/thin_lizzy/kings_vengeance_tab.html ]
Riff 3
e|---------------------|---------------|
B|---------------------|---------------|
G|--7------------------|-7--5----5---7-|
D|--7-------------4-7--|-7--5----5---7-|
A|--5----------5-------|-5--3----3---5-|
E|---------------------|---------------|
  \-------------------/
  x3

Riff 4Riff 5
e|---------------------------|e|---------------------|------|
B|---------------------------|B|------------8--------|------|
G|--2/4--2-------------------|G|--2----7-7--7--7-7-7-|-2--7-|
D|----------4--2-2h4p2p0-----|D|--2----7-7--5--7-7-7-|-2--7-|
A|-----------------------2---|A|--0----5-5-----5-5-5-|-0--5-|
E|---------------------------|E|---------------------|------|
  \-------------------/
x3

Riff 6
e|----------------------------|
B|--8--8---------------7--7-7-|
G|--7--7--7--7-7-------7--7-7-|
D|--5--5--7--7-7--5-5--7--7-7-|
A|--------5--5-5--5-5--5--5-5-|
E|----------------3-3---------|

Riff 7
e|--15--14----------|-15--17--15--14-|--------|-15--14--17-14-17-14-17-14-17-14-17-14-17-14-17-14-|
B|----------15------|----------------|--------|---------------------------------------------------|
G|--------------14--|----------------|-12--12-|---------------------------------------------------|
D|------------------|----------------|--------|---------------------------------------------------|
A|------------------|----------------|--------|---------------------------------------------------|
E|------------------|----------------|--------|---------------------------------------------------|
  \----------------/  1st ending       2nd end         play this the 3rd time
x2

Riff 8
e|--10-7-----------------|-17-15-14-----------14-14-|
B|-------10-8-7-8--10-10-|----------17-15-17--------|
G|-----------------------|--------------------------|
D|-----------------------|--------------------------|
A|-----------------------|--------------------------|
E|-----------------------|--------------------------|



Intro: Riff 1 x4

1st Verse: Riff 2 and 3 (2 guitars) x4

The fill-in between 1st verse and the chorus is riff 4

Chorus: Riff 5

While Phil sings this: "Spring she comes.." and so on, play riff6 4 times and 
then the second guitar starts doing riff 7 and after that one, guitar 2 
plays riff8 4 times. Guitar 1 will have played riff6 12 times, when that little part is over.

While Phil sings: "And the child.." play riff 5

Then do riff1 4 times and then it's solo time. Play Riff2 and 3 x4 while doing the solo.

Riff 4

Riff 5

While Phil sings this: "Spring she comes.." and so on, play riff6 4 times and 
then the second guitar starts doing riff 7 and after that one, guitar 2 
plays riff8 4 times. Guitar 1 will have played riff6 12 times, when that little part is over.

Riff 5
Comments