Thin Lizzy - Johnny The Fox Meets Jimmy The Weed Chords & Tabs

 

Johnny The Fox Meets Jimmy The Weed Chords & Tabs

Thin Lizzy Chords & Tabs

Version: 1 Type: Tab 0 ratings
1 star 2 stars 3 stars 4 stars 5 stars
comments

Johnny The Fox Meets Jimmy The Weed Tab

Artist	Thin Lizzy
Title	Johnny The Fox Meets Jimmy The Weed
Album	Johnny The Fox


(00.12 - 00.30)

|-----------------------------------------------|
|-----------------------------------------------|
|-666x6/4--666x6/4--666x6/4--666x6/4------------|  Slight Pause with sustain
|-666x6/4--666x6/4--666x6/4--666x6/4------------|
|-444x4/2--444x4/2--444x4/2--444x4/2------------|
|-----------------------------------------------|


(00.30 - 00.48)

|----------------------------------------------|
|----------------------------------------------|
|--------6666-------6666-------6666------------| Listen to song, repeat as necessary
|--------6666-------6666-------6666------------|
|--------4444-------4444-------4444------------|
|-2h4-444----2h4-444----2h4-444----------------|


(00.48 - 01.06)

|-----------------------------------------------|
|-----------------------------------------------|
|----------------666x6/4----------------666x6/4-| Listen to song, repeat as necessary
|----2h4---------666x6/4----2h4---------666x6/4-|
|-444------------444x4/2-444------------444x4/2-|
|-------222h4-444--------------222h4-444--------|


(01.06 - 01.23)

|-----------------------------------------------|
|-----------------------------------------------|
|-666x6/4--666x6/4--666x6/4--666x6/4------------|  Slight Pause with sustain
|-666x6/4--666x6/4--666x6/4--666x6/4------------|
|-444x4/2--444x4/2--444x4/2--444x4/2------------|
|-----------------------------------------------|


(01.24 - 01.41)

|----------------------------------------------|
|----------------------------------------------|
|--------6666-------6666-------6666------------| Listen to song, repeat as necessary
|--------6666-------6666-------6666------------|
|--------4444-------4444-------4444------------|
|-2h4-444----2h4-444----2h4-444----------------|


(01.42 - 02.02)
[ Tab from: http://www.guitartabs.cc/tabs/t/thin_lizzy/johnny_the_fox_meets_jimmy_the_weed_tab.html ]
|-----------------------------------------------|
|-----------------------------------------------|
|----------------666x6/4----------------666x6/4-| Listen to song, repeat as necessary
|----2h4---------666x6/4----2h4---------666x6/4-|
|-444------------444x4/2-444------------444x4/2-|
|-------222h4-444--------------222h4-444--------|


(02.02 - 02.21) Played during the wah wah solo

|----------------------------------------------|
|----------------------------------------------|
|--------6666-------6666-------6666------------| Listen to song, repeat as necessary
|--------6666-------6666-------6666------------|
|--------4444-------4444-------4444------------|
|-2h4-444----2h4-444----2h4-444----------------|
|----------------------------------------------|


(02.21 - 02.39)

|-----------------------------------------------|
|-----------------------------------------------|
|-666x6/4--666x6/4--666x6/4--666x6/4------------|  Slight Pause with sustain
|-666x6/4--666x6/4--666x6/4--666x6/4------------|
|-444x4/2--444x4/2--444x4/2--444x4/2------------|
|-----------------------------------------------|


(02.39 - 02.57)

|----------------------------------------------|
|----------------------------------------------|
|--------6666-------6666-------6666------------| Listen to song, repeat as necessary
|--------6666-------6666-------6666------------|
|--------4444-------4444-------4444------------|
|-2h4-444----2h4-444----2h4-444----------------|


(02.57 - 03.42)

|-----------------------------------------------|
|-----------------------------------------------|
|----------------666x6/4----------------666x6/4-| Listen to song, repeat as necessary
|----2h4---------666x6/4----2h4---------666x6/4-| Fade out
|-444------------444x4/2-444------------444x4/2-|
|-------222h4-444--------------222h4-444--------|


Here's another stab at a great lizzy track. As usual need help with 
the solo. it's sounds pretty good anyway with plenty of 'lizzy-esque'
distortion.
ENJOY!

I promise not to crap myself at the battleofthebands auditions!
signed Philip Farmer

wrostle@yahoo.com
Comments