Thin Lizzy - Jailbreak Chords & Tabs

 

Jailbreak Chords & Tabs

Thin Lizzy Chords & Tabs

Version: 2 Type: Tab 1 rating
1 star 2 stars 3 stars 4 stars 5 stars
comments

Jailbreak Tab

   
#----------------------------------PLEASE NOTE---------------------------------#
#This file is the author's own work and represents their interpretation of the #
#song. You may only use this file for private study, scholarship, or research. #
#------------------------------------------------------------------------------##

JAILBREAK

As recorded by Thin Lizzy
(From the 1976 Album JAILBREAK)

(Unknown Tabber)

Gtr I (E A D G B E) - 'Brian Robertson - overdrive electric'
Gtr II (E A D G B E) - 'Scott Gorham - overdrive electric'
Gtr III (E A D G B E) - 'Lead - dist electric'

Intro
               Q=143
 4/4
  Gtrs I, II
   W             Q  E E E E E E   Q  E S S E E E E   Q  E E E E E E
|--------------|----------------|------------------|-----------------|
|-15b17--------|----------------|------------------|-----------------|
|--------------|-2--------------|------------------|-2---------------|
|--2-----------|-2----2---------|------------------|-2---------------|
|--2-----------|-0----2-----4-4-|----------2-2-4---|-0----2-----4-4--|
|--0-----------|------0---0-2-2-|------0-0-0-0-2-0-|------0-0-0-2-2--|
   W


  E E E E E E E E   Q  E E E E E E   E E E E E E E E   Q  E E  E  E E  E
|-----------------|----------------|-----------------|--------------------|
|-----------------|----------------|-----------------|--------------------|
|-----------------|-2--------------|-----------------|-2------------------|
|-----------------|-2--------------|-----------------|-2------------------|
|-x-x-x-x-2-2-4---|-0----2-x---4-4-|-x-x-x-x-2-2-4---|-0----2--x----4--4--|
|-x-x-x-x-0-0-2-0-|------0-x-0-2-2-|-x-x-x-x-0-0-2-0-|------0--x--0-2--2--|
|
| Gtr III w/wah wah
|                                                           ~~~~~~
| W                 W                W                 Q  E E +Q    Q
|-----------------|----------------|-----------------|--------------------|
|-----------------|----------------|-----------------|--------------------|
|-----------------|----------------|-----------------|-4----2-(2)---------|
|-----------------|----------------|-----------------|--------------4\----|
|-----------------|----------------|-----------------|--------------------|
|-----------------|----------------|-----------------|--------------------|


                    Verses
                 $
  Q  E E E E E E     Q  E E E E E E   E E E E E E E E
|----------------||-----------------|-----------------|
|----------------||o----------------|-----------------|
|----------------||--2--------------|-----------------|
|----------------||--2----2---------|-----------------|
|--------2-2-4---||o-0----2-----4-4-|-x-------2-2-4---|
|------0-0-0-2-0-||-------0---0-2-2-|-x---0-0-0-0-2-0-|


  Q  E E E E E E   E E E E E E E E   Q  E E E E E E
|----------------|-----------------|----------------|
|----------------|-----------------|----------------|
|-2--x-----------|-----------------|-2--------------|
|-2--x-----------|-----------------|-2--------------|
|-0--x-2-x---4-4-|-x-x-x-2-2-2-4---|-0----2-x---4-4-|
|------0-x-0-2-2-|-x-x-x-0-0-0-2-0-|------0-x-0-2-2-|


  E E E S S E E E E   Q  E E E E E E   E E E S S E E E E
|-------------------|----------------|-------------------|
|-------------------|----------------|-------------------|
|-------------------|-2--------------|-------------------|
|-------------------|-2--------------|-------------------|
|-x-x-x-----2-2-4---|-0----2-----4-4-|-x-x-x-----2-2-4---|
|-x-x-x-0-0-0-0-2-0-|------0---0-2-2-|-x-x-x-0-0-0-0-2-0-|


  Q  E E E E E E   E E E E E E E E   Q  E E E E E E
|----------------|-----------------|----------------|
|----------------|-----------------|----------------|
|-2--------------|-----------------|-2--x-----------|
|-2--------------|-----------------|-2--x-----------|
|-0----2-x---4-4-|-x-x-x-2-2-2-4---|-0--x-2-x-x-4-4-|
|------0-x-0-2-2-|-x-x-x-0-0-0-2-0-|------0-x-x-2-2-|


  E E E S S E E E E   Q  E E E E E E
|-------------------|----------------|
|-------------------|----------------|
|-------------------|-2--x-----------|
|-------------------|-2--x-----------|
|-x---x-----2-2-4---|-0--x-2-----4-4-|
|-x---x-0-0-0-0-2-0-|------0---0-2-2-|


                                                    To Coda
  E E E S S E E E E   Q  E E E E E E   H.      S S S S
|-------------------|----------------|-----------------||
|-------------------|----------------|-----------------||
|-------------------|-2--------------|-------------4-4-||
|-------------------|-2--------------|-------------4-4-||
|-x-x-x-----2-2-4---|-0----2-----4-4-|---------0h2-2-2-||
|-x-x-x-0-0-0-0-2-0-|------0---0-2-2-|-----------------||


 Chorus
  Gtr III
                       ~~
   a      +H..         E    +H.       Q
|------------------------|------------------|
|-17b19==(19)r--------17-|-(17)-------------|
|------------------------|------------------|
|------------------------|------------------|
|------------------------|------------------|
|------------------------|------------------|
|
| Gtrs I, II
|          H.       E  E    +H..        S S
|------------------------|------------------|
|------------------------|------------------|
|----------4-------------|--------------4-4-|
|----------4-----------2-|--(2)---------4-4-|
|----------2-----------2-|--(2)---------2-2-|
|-------------------0--0-|--(0)-------------|


                       ~~
   a      +H..         E    +H.      Q
|------------------------|------------------|
|-17b19==(19)r--------17-|-(17)-------------|
|------------------------|------------------|
|------------------------|------------------|
|------------------------|------------------|
|------------------------|------------------|
|
|          H.       E  E    +H.      E S S
|------------------------|------------------|
|------------------------|------------------|
|----------4-------------|-------------4-4--|
|----------4-----------2-|--(2)--------4-4--|
|----------2-----------2-|--(2)------0-2-2--|
|-------------------0--0-|--(0)-------------|


                          1.
                       ~~
   A      +H..         E    +H      +E   E     Q
|------------------------|---------------------------|
|-17b19==(19)r--------17-|-(17)----(17)-------14-----|
|------------------------|--------------16b18--------|
|------------------------|---------------------------|
|------------------------|---------------------------|
|------------------------|---------------------------|
|
|          H.       E  E    +H.                E  E
|------------------------|---------------------------|
|------------------------|---------------------------|
|----------4-------------|---------------------------|
|----------4-----------2-|--(2)----------------2-----|
|----------2-----------2-|--(2)------------------(0)-|
|-------------------0--0-|--(0)------------------(0)-|


                              ~~~~~~~~~~
   E     +E   E  E     E   E  Q     +H      +Q    Q
|--------------------------------|-------------------|
|--------------------------------|-------------------|
|-16b18r(16)p14-16b18--------14--|-(14)----(14)\-----|
|-------------------------16-----|-------------------|
|--------------------------------|-------------------|
|--------------------------------|-------------------|
|
|  E      E   E  E    +E   E  Q     +H.           Q
|--------------------------------|-------------------|
|--------------------------------|-------------------|
|--------------------------------|-------------------|
|-------------2------------------|-------------------|
|--0------4----------------------|-------------------|
|----------------4----(4)--0--2--|--(2)--------------|


  Gtrs I, II
  Q  E E E E E E   E E E E E  E E          E
|----------------|----------------------------|
|----------------|----------------------------|
|-2--------------|----------------------------|
|-2--------------|----------------------------|
|-0----2-x---4-4-|-x-x-x---2--2-4-------------|
|------0-x-0-2-2-|-x-x-x-0-0--0-2----------0--|
|
| Gtr III
| W                H       Q.      A      +E
|----------------|----------------------------|
|----------------|----------------------------|
|----------------|----------------16b18==(18)-|
|----------------|----------------------------|
|----------------|----------------------------|
|----------------|----------------------------|


   Q     E   E   E  E     E E    H       E E E E
|-----------------------------|------------------|
|-----------------------------|------------------|
|--2--------------------------|------------------|
|--2--------------------------|------------------|
|--0---------2------------4-4-|----------2-2-4---|
|------------0---x--0-----2-2-|----------0-0-2-0-|
|
|                         ~~
|  E  E  E  +E   E  E     Q      Q   H.
|-----------------------------|------------------|
|-----------------------------|------------------|
|-18-18-18r(16)-14-16b18-14---|------------------|
|-----------------------------|-16\--------------|
|-----------------------------|------------------|
|-----------------------------|------------------|


  Q  E E E E E E   E E E E E E E E   Q  E E E E E E   E S   +S  E E E E E E
|----------------|-----------------|----------------|------------------------||
|----------------|-----------------|----------------|-----------------------o||
|-2--------------|-----------------|-2--------------|---4b6r(4)p2------------||
|-2--------------|-----------------|-2--------------|------------------------||
|-0----2-----4-4-|---------2-2-4---|-0----2-----4-4-|---------------2-2-4---o||
|------0-x-0-2-2-|-x-x-x-0-0-0-2-0-|------0-0-0-2-2-|---------------0-0-2-0--||


  2.
  Gtr III
    ~~~~~
    H       +E   E  E  E      E     +E   E  A      +E   +H
|--------------------------|-------------------------------------|
|-(17)-----(17)-14---------|-------------------------------------|
|------------------16-14---|-16b18r(16)-14-16b18==(18)-(18)r-----|
|--------------------------|-------------------------------------|
|--------------------------|-------------------------------------|
|--------------------------|-------------------------------------|
|
| Gtrs I, II
|   H..                S S    H..                              E
|--------------------------|-------------------------------------|
|--------------------------|-------------------------------------|
|----------------------2-2-|--2----------------------------------|
|--(2)-----------------2-2-|--2--------------------------------4-|
|--(2)-----------------0-0-|--0--------------------------------4-|
|--(0)---------------------|-----------------------------------2-|


   Q.    E  e    S  S  S  S  a      +E
|------------------14---------------------|
|---------------------17p14-17b19==(19)---|
|-------14-16b18--------------------------|
|-----------------------------------------|
|-----------------------------------------|
|-----------------------------------------|
|
| +H.                  E             S  S
|-----------------------------------------|
|-----------------------------------------|
|------------------------------------4--4-|
|-(4)--------------------------------4--4-|
|-(4)------------------0-------------2--2-|
|-(2)-------------------------------------|


                ~~                                                       ~~
   +H..         E    +H.       E  A      +E       +H      +E    E  E     E
|-----------------|----------------------------|---------------17----------|
|-(17)---------17-|-(17)------14-17b19==(19)---|-(19)----(19)r----17b19-17-|
|-----------------|----------------------------|---------------------------|
|-----------------|----------------------------|---------------------------|
|-----------------|----------------------------|---------------------------|
|-----------------|----------------------------|---------------------------|
|
|   H.       E  E    +H.       E          S  S     H.              E     E
|-----------------|----------------------------|---------------------------|
|-----------------|----------------------------|---------------------------|
|---4-------------|-----------------------4--4-|---4-----------------------|
|---4-----------2-|--(2)------------------4--4-|---4---------------------2-|
|---2-----------2-|--(2)-------0----------2--2-|---2---------------------2-|
|------------0--0-|--(0)-----------------------|-------------------0-----0-|

[ Tab from: http://www.guitartabs.cc/tabs/t/thin_lizzy/jailbreak_tab_ver_2.html ]
    ~~~~                                         ~~~~~~~~~~
   +H      +E   E  E  E      A      +H..         E    +H       +E   E  E  E
|-------------------------|------------------------|------------------------|
|-(17)----(17)-14-17-14---|-17b19==(19)r--------17-|-(17)-----(17)-14-17-14-|
|-------------------------|------------------------|------------------------|
|-------------------------|------------------------|------------------------|
|-------------------------|------------------------|------------------------|
|-------------------------|------------------------|------------------------|
|
|  +H.             E  S S            H.       E  E    +H..                E
|-------------------------|------------------------|------------------------|
|-------------------------|------------------------|------------------------|
|---------------------4-4-|----------4-------------|------------------------|
|--(2)----------------4-4-|----------4-----------2-|--(2)-------------------|
|--(2)-------------0--2-2-|----------2-----------2-|--(2)-------------------|
|--(0)--------------------|-------------------0--0-|--(0)-----------------0-|


                                                             Breakdown
                                                              PM--------|
   A      +E   E  E   E      +S    S  E  Q     +H     H       E E E E E E Q
|-------------------------------------------|--------------||----------------|
|-------------------------------------------|--------------||----------------|
|-16b18==(18)-16-16r-16b18==(18)r-16-14-14--|-(14)---------||----------------|
|-------------------------------------------|--------------||-----2----------|
|-------------------------------------------|--------------||-0-4------------|
|-------------------------------------------|--------------||-------4---0-2--|
|
|                                                             PM--------|
|          E   E  E   E      +E       E  Q     +W             E E E E E E Q
|-------------------------------------------|--------------||----------------|
|-------------------------------------------|--------------||----------------|
|-------------------------------------------|--------------||----------------|
|-----------------2----------------------4--|--(4)---------||-----2----------|
|----------0---4-------------------------4--|--(4)---------||-0-4------------|
|---------------------4------(4)------0--2--|--(2)---------||-------4---0-2--|


  Gtrs I, II
   ~~~           PM--------|       ~~~           PM--------| ~
  +H.      E E   E E E E E E Q    +H.      E E   E E E E E E Q
|--------------|----------------|--------------|-----------------|
|--------------|----------------|--------------|-----------------|
|--------------|----------------|--------------|-----------------|
|--------------|-----2----------|--------------|-----2-----------|
|--------------|-0-4------------|--------------|-0-4-------------|
|-(2)--------0-|-------4---0-2--|-(2)--------0-|-------4---0-2---|


                                                 Guitar Break
   ~~~           PM--------|
  +H.      E E   E E E E E E Q    +H.      Q      E E E E E E E E
|--------------|----------------|--------------||------------------|
|--------------|----------------|--------------||------------------|
|--------------|----------------|--------------||------------------|
|--------------|-----2-------4--|-(4)----------||-------6-----7----|
|--------------|-0-4---------4--|-(4)----------||-7-7-7---7-7---7--|
|-(2)--------0-|-------4---0-2--|-(2)------x/--||------------------|


              ~                                  ~
  E E E E E E Q    E E E E E E E E   E E E E E E Q    E E E E E E E E
|----------------|-----------------|----------------|------------------|
|----------------|-----------------|----------------|------------------|
|----------------|-----------------|----------------|------------------|
|---8-----9------|-------6-----7---|---8-----9------|-------6-----7----|
|-7---7-7---7-7--|-7-7-7---7-7---7-|-7---7-7---7-7--|-7-7-7---7-7---7--|
|-------------0--|-----------------|-------------0--|------------------|


              ~                                  ~
  E E E E E E Q    E E E E E E E E   E E E E E E Q    E E E E E E E E
|----------------|-----------------|----------------|------------------|
|----------------|-----------------|----------------|------------------|
|----------------|-----------------|----------------|------------------|
|---8-----9------|-------6-----7---|---8-----9------|------------------|
|-7---7-7---7-7--|-7-7-7---7-7---7-|-7---7-7---7-7--|-0-0-0-4-0-0-5-0--|
|-------------0--|-----------------|-------------0--|------------------|


  E E E E E E Q    E E E E E E E E   E E E E E E Q    E E E E E E E E
|----------------|-----------------|----------------|------------------|
|----------------|-----------------|----------------|------------------|
|----------------|-----------------|----------------|------------------|
|----------------|-----------------|----------------|-------6-----7----|
|-0-6-0-0-7-0-0--|-0-0-0-4-0-0-5-0-|-0-6-0-0-7-0-0--|-7-7-7---7-7---7--|
|----------------|-----------------|----------------|------------------|


  E E E E E E Q    E E E E E E E E   E E E E E E E E   E E E E E E E E
|----------------|-----------------|-----------------|------------------|
|----------------|-----------------|-----------------|------------------|
|----------------|-----------------|---------------6-|-----7-----8------|
|---8-----9------|-------6-----7---|---8-----9-------|------------------|
|-7---7-7---7----|-7-7-7---7-7---7-|-7---7-7---7-7---|-7-7---7-7---7-7--|
|-------------0--|-----------------|-----------------|------------------|


                           Pre-Verse
  ~~~~~~~~~~~~~~~
  W          +H.      Q     Q  E E E E E E   E E E E E E E E
|----------|-------------||----------------|------------------|
|-9--------|-(9)---------||----------------|------------------|
|-9--------|-(9)---------||-2--------------|------------------|
|----------|-------------||-2--x-2---------|------------------|
|----------|-------------||-0--x-2-----4-4-|---------2-2-4----|
|----------|-------------||------0-0-0-2-2-|-x-x-x-0-0-0-2-0--|


  Q  E E E E E E   E E E E E E E E   Q  E E E E E E
|----------------|-----------------|----------------|
|----------------|-----------------|----------------|
|-2--------------|-----------------|-2--------------|
|-2----2---------|-----------------|-2--x-2---------|
|-0----2-----4-4-|---------2-2-4---|-0--x-2-----4-4-|
|------0-0-0-2-2-|-x-x-x-0-0-0-2-0-|------0-0-0-2-2-|


                                                 D.S. al Coda
  E E E E E E E E   Q  E E E E E E   E E E E E E E E
|-----------------|----------------|-----------------||
|-----------------|----------------|-----------------||
|-----------------|-2--------------|-----------------||
|-----------------|-2--x-2---------|-----------------||
|---------2-2-4---|-0--x-2-----4-4-|---------2-2-4---||
|-x-x-x-0-0-0-2-0-|------0-0-0-2-2-|-x-x-x-0-0-0-2-0-||


 Out-Chorus
  &
  Gtr III
                                 ~~~~~~~~~                                  ~~
   A      +H      +E    E  E     E    +W                A      +H..         E
|----------------------17----------|-----------------|------------------------|
|-17b19==(19)----(19)r----17b19-17-|-(17)------------|-17b19==(19)r--------17-|
|----------------------------------|-----------------|------------------------|
|----------------------------------|-----------------|------------------------|
|----------------------------------|-----------------|------------------------|
|----------------------------------|-----------------|------------------------|
|
| Gtrs I, II
|          H.              E     E    +H.      E S S            H.       E  E
|----------------------------------|-----------------|------------------------|
|----------------------------------|-----------------|------------------------|
|----------4-----------------------|-------------4-4-|----------4-------------|
|----------4---------------------2-|--(2)--------4-4-|----------4-----------2-|
|----------2---------------------2-|--(2)------0-2-2-|----------2-----------2-|
|--------------------------0-----0-|--(0)------------|-------------------0--0-|


    ~~~~                                     ~~~~~~~~~~
   +W                a      +H.        E     E    +H.        S  S  E
|-----------------|----------------------------|------------------------|
|-(17)------------|-17b19==(19)r------17b19-17-|-(17)-------17p14-14----|
|-----------------|----------------------------|------------------------|
|-----------------|----------------------------|------------------------|
|-----------------|----------------------------|------------------------|
|-----------------|----------------------------|------------------------|
|
|  +H.      E S S            H.        E     E    +H..             S S
|-----------------|----------------------------|------------------------|
|-----------------|----------------------------|------------------------|
|-------------4-4-|----------4-----------------|-------------------2-2--|
|--(2)--------4-4-|----------4---------------2-|--(2)--------------2-2--|
|--(2)------0-2-2-|----------2---------------2-|--(2)--------------0-0--|
|--(0)------------|--------------------0-----0-|--(0)-------------------|


   E   E  E  A      +E   +E    S  S  E     +E
|----------------------------------------------|
|----------------------------------------------|
|-16--16-14-16b18==(18)-(18)r-16p14-16b18r(16)-|
|----------------------------------------------|
|----------------------------------------------|
|----------------------------------------------|
|
|  H.                                E      E
|----------------------------------------------|
|----------------------------------------------|
|--2-------------------------------------------|
|--2----------------------------------------4--|
|--0----------------------------------------4--|
|------------------------------------0------2--|


                                                  ~~
   Q    S  S  E  Q   Q        a      +H..         E
|--------------------------|------------------------|
|--------------------------|-17b19==(19)r--------17-|
|-14---16p14--------14-----|------------------------|
|------------16-16---------|------------------------|
|--------------------------|------------------------|
|--------------------------|------------------------|
|
| +H.                E S S            H.       E  E
|--------------------------|------------------------|
|--------------------------|------------------------|
|--------------------x-4-4-|----------4-------------|
|-(4)----------------x-4-4-|----------4-----------2-|
|-(4)----------------x-2-2-|----------2-----------2-|
|-(2)----------------------|-------------------0--0-|


    ~~~~                                           ~~~~~~~~~
   +W                A      +H      +E    E  E     E    +W
|-----------------|----------------------17----------|-----------------|
|-(17)------------|-17b19==(19)----(19)r----17b19-17-|-(17)------------|
|-----------------|----------------------------------|-----------------|
|-----------------|----------------------------------|-----------------|
|-----------------|----------------------------------|-----------------|
|-----------------|----------------------------------|-----------------|
|
|  +H.      E S S            H.              E     E    +H.      E S S
|-----------------|----------------------------------|-----------------|
|-----------------|----------------------------------|-----------------|
|-------------4-4-|----------4-----------------------|-------------4-4-|
|--(2)--------4-4-|----------4---------------------2-|--(2)--------4-4-|
|--(2)------0-2-2-|----------2---------------------2-|--(2)------0-2-2-|
|--(0)------------|--------------------------0-----0-|--(0)------------|


                       ~~~~~~~~~
   A      +H..         E    +H.       E     E
|------------------------|--------------------|
|-17b19==(19)r--------17-|-(17)------------14-|
|------------------------|-----------16b18----|
|------------------------|--------------------|
|------------------------|--------------------|
|------------------------|--------------------|
|
|          H.       E  E    +W
|------------------------|--------------------|
|------------------------|--------------------|
|----------4-------------|--------------------|
|----------4-----------2-|--(2)---------------|
|----------2-----------2-|--(2)---------------|
|-------------------0--0-|--(0)---------------|


                            ~~
   E  E     +E   E  +E   E  Q     +W
|------------------------------|---------*|
|-14---------------------------|---------*|
|----16b18r(16)-14-(14)-16-14--|-(14)----*|
|------------------------------|---------*|
|------------------------------|---------*|
|------------------------------|---------*|
|
|  E  E      E   E  +E   E  Q     +W
|------------------------------|---------*|
|------------------------------|---------*|
|------------------------------|---------*|
|------------2-----------------|---------*|
|--0--4------------------------|---------*|
|----------------4--(4)--0--2--|--(2)----*|
Comments