Thin Lizzy - Holy War Chords & Tabs

 

Holy War Chords & Tabs

Thin Lizzy Chords & Tabs

Version: 1 Type: Tab 0 ratings
1 star 2 stars 3 stars 4 stars 5 stars
comments

Holy War Tab

   
Intro:
e-----------------------------------------------------------------------------------|
B-----------------------------------------------------------------------------------|
G-11-11-9-9---------------------------------9-9-------------------------------------|
D-----------12-12-11-11-9-9---------------------12-12-11-11-9-9---------------------|
A---------------------------12-12-11-11-9-9---------------------12-12-11-11-9-9-----|
E-------------------------------------------------------------------------------12--|
[ Tab from: http://www.guitartabs.cc/tabs/t/thin_lizzy/holy_war_tab.html ]
e------------------------------------------------------------|
B------------------------------------------------------------|i'm not really sure
G---------------------------------------9----9h11-11-12-11-9-|about the end of this
D---------------9----9h11-9h11h12-11h12---12-----------------|part: too fast for me
A-9h11h12-11h12---12-----------------------------------------|
E------------------------------------------------------------|

Verse:
e---------------------------------|
B-7-----10-7-----10-7-------------|
G-6-7-9-9--6-7-9-9--6-7-9-6-7-6---|
D-4-7-9-7--4-7-9-7--4-7-9-6-7-6-4-|
A---5-7------5-7------5-7-4-5-4-4-|
E-------------------------------2-|

Chorus:
e-------------------------------|
B-------------------------------|
G-------6-------6-7-4-6-6-------|
D-4-6-7-6-4-6-7-6-7-4-6-6-4-6-7-|
A-4-6-7-4-4-6-7-4-5-2-4-4-4-6-7-|
E-2-4-5---2-4-5-----------2-4-5-|
Comments