Thin Lizzy - Hollywood Chords & Tabs

 

Hollywood Chords & Tabs

Thin Lizzy Chords & Tabs

Version: 1 Type: Tab

Hollywood Tab

Artist:Thin Lizzy
Song Name:Holly wood
Tabbed By:Zack Ord
Email:blink182rulez@hotmail.co.uk

Tuning: Drop D (DADGBe)

Intro:
Bass comes in first

e|--------------------|----------------------------------------------------|
B|--------------------|----------------------------------------------------|
G|--------------------|----------------------------------------------------|
D|1-1-3--1-1-3--6-6-8-|--1-1-3--6-8-10-8-----------------------------------|
A|1-1-3--1-1-3--6-6-8-|--1-1-3--6-8-10-8-----------------------------------|
D|1-1-3--1-1-3--6-6-8-|--1-1-3--6-8-10-8-----------------------------------|
    Repeat X3
[ Tab from: http://www.guitartabs.cc/tabs/t/thin_lizzy/hollywood_tab.html ]
Main Riff:
is exactly the same as the intro apart from u play the first bit 7 times then the bit 
once...

Chourus:
e|---|--|-----------------|------------------------------------------------|
B|---|--|-----------------|------------------------------------------------|
G|---|--|-----------------|------------------------------------------------|
D|10-|6-|8-8-8-8----------|--11-10-8-6-8-10-13-----------------------------|
A|10-|6-|8-8-8-8------6---|--11-10-8-6-8-10-13-----------------------------|
D|10-|6-|8-8-8-8-8-10--10-|--11-10-8-6-8-10-13-----------------------------|
 X16  X8
{ play all of this X3    }

Now play main riff again and the chourus then the solo which i havnt worked out but this 
nearly a whole song lol anyway please rate

Cheers