Thin Lizzy - Fighting My Way Back Chords & Tabs

 

Fighting My Way Back Chords & Tabs

Thin Lizzy Chords & Tabs

Version: 1 Type: Tab 0 ratings
1 star 2 stars 3 stars 4 stars 5 stars
comments

Fighting My Way Back Tab

Fighting My Way Back - THIN LIZZY
tabbed by sgorhamrocks@yahoo.com

guitar tab
----------
[ Tab from: http://www.guitartabs.cc/tabs/t/thin_lizzy/fighting_my_way_back_tab.html ]
 Intro: Repeat x3 I think listen to the song to figure out the pattern
E|------------------------------------------|
B|------------------------------------------|
D|------------------------------------------|
G|-----7-7-7-7---7--7-7-7-------------------|
A|-----6-6-6-6------8---8-------------------|
E|------------------------------------------|

 Verses:
E|-----------------------------------------------|
B|-----------------------------------------------|
D|-----------8-8---------------------------------|
G|-----8--7--------------------------------------|
A|-----7--8--------------------------------------|
E|-----------------------------------------------|

this all I got so far I'm still working on the guitar solo
Comments