Thin Lizzy - Emerald Chords & Tabs

 

Emerald Chords & Tabs

Thin Lizzy Chords & Tabs

Version: 2 Type: Tab 0 ratings
1 star 2 stars 3 stars 4 stars 5 stars
comments

Emerald Tab

#----------------------------------PLEASE NOTE---------------------------------#
#This file is the author's own work and represents their interpretation of the #
#song. You may only use this file for private study, scholarship, or research. #
#------------------------------------------------------------------------------#

I've been looking for a tab to emerald for quite some time now but can never seem to find it, so here is a tab of the part that goes between the verses and at the start of the song, I have no idea how to play the solo though. I know it is done by two guitars if that helps anyone who wants to try it out. If someone knows were I can get the full tab for this song could you e-mail me at al_wafer@hotmail.com or if they have any problems with this tab. 

Part I
e-|-------------------------------------------|-
B-|-------------------------------------------|-
G-|-------------------------------------------|-
D-|--7-7-7-7-7-7-7-5---5----------------------|-
A-|------------------7---7-5-7-5-3-5-3-0------|-
E-|--------------------------------------3----|-

Part II and part IV
e-|-------------------------------------------|-
B-|-------------------------------------------|-
G-|-------------------------------------------|-
D-|-----------------------------------------7-|-
A-|---------------------------5-5-5-5-5-3-5---|-
E-|--3--3-3-3-3-5-5-5-5-5-3-5-----------------|-
[ Tab from: http://www.guitartabs.cc/tabs/t/thin_lizzy/emerald_tab_ver_2.html ]
Part III
e-|-------------------------------------------|-
B-|-------------------------------------------|-
G-|--7-7-7-7-7-7-7-5---5----------------------|-
D-|------------------7---7-5-7-5---5----------|-
A-|------------------------------7---7-5------|-
E-|--------------------------------------3----|-

Part V
e-|-------------------------------------------|-
B-|-------------------------------------------|-
G-|-------------------------------------------|-
D-|-------------------------------------------|-
A-|-------------------------------------------|-
E-|-3-2-0-------------------------------------|-

obviously enough it goes

Part I
Part II
Part III
Part II (which is part IV as well)
Part V

play it as fast an you can and you have it, good luck!


#----------------------------------PLEASE NOTE---------------------------------#
#This file is the author's own work and represents their interpretation of the #
#song. You may only use this file for private study, scholarship, or research. #
#------------------------------------------------------------------------------##
Tabber: Unknown

|---------------------|--------------------0|0-2-3-2-0-2-0---0-------------------------|
|--0-1-0---0----------|--0-1-0---0----------|--------------3---3-1-3-1-0--1-0---0------|
|2-------2---2-0-2-0--|2-------2---2-0-2-0--|---------------------------------2---2-0-2|
|--------------------2|---------------------|------------------------------------------|
|---------------------|---------------------|------------------------------------------|
|---------------------|---------------------|------------------------------------------|
Comments