Thin Lizzy - Dont Belive A Word Chords & Tabs

 

Dont Belive A Word Chords & Tabs

Thin Lizzy Chords & Tabs

Version: 1 Type: Bass Tab

Dont Belive A Word Bass Tab

START 0.00
G|-----------------|-----------------|
D|-----------------|-----------------|
A|-----------------|-----------------|
E|-4-4-4-4-4-4-4-4-|-4-4-4-4-4-4-4-4-|

G|-----------------|-----------------|
D|-----------------|-----------------|
A|-----------------|-----------------|
E|-4-4-4-4-4-4-4-4-|-4-4-4-4-4-4-4-4-|

G|-----------------|-----------------|
D|-----------------|-----------------|
A|-----------------|-----------------|
E|-4-4-4-4-4-4-4-4-|-4-4-4-4-4-4-4-4-|

G|-----------------|---|
D|-----------------|---|
A|-----------------|---|
E|-4-4-4-4-4-4-444-|-4-|


VERSE 0.13
G|-----------------|-----------------|-----------------|---|
D|-----------------|-----------------|-----------------|---|
A|-----------------|-----------------|-4-4-4-4-4-4-4-4-|---|
E|-4-4-4-4-4-4-4-4-|-4-4-4-4-4-4-4-4-|-----------------|-2-|

G|-----------------|        /|------------------------------|\
D|-6--4--2---------|       / |-6666--4444--2----------------| \ ANOTHER WAY
A|----------4--2---|       \ |----------------4444--2222----| / TO PLAY IT
E|---------------2-|        \|----------------------------2-|/

G|-----------------|-----------------|-----------------|---|
D|-----------------|-----------------|-----------------|---|
A|-----------------|-----------------|-4-4-4-4-4-4-4-4-|---|
E|-4-4-4-4-4-4-4-4-|-4-4-4-4-4-4-4-4-|-----------------|-2-|

G|-----------------|      /|------------------------------|\
D|-6--4--2---------|     / |-6666--4444--2----------------| \ ANOTHER WAY
A|----------4--2---|     \ |----------------4444--2222----| / TO PLAY IT
E|---------------2-|      \|----------------------------2-|/


CHORUS 0.40
G|-----------------|-----------------|-----------------|
D|-----------------|-----------------|-----------------|
A|-6-6-6-6-6-6-6-6-|-6-6-6-6-6-6-6-6-|-4-4-4-4-4-4-4-4-|
E|-----------------|-----------------|-----------------|

G|-----------------|-----------------|-----------------|
D|-----------------|-----------------|-----------------|
A|-4-4-4-4-4-4-4-4-|-4-4-4-4-4-4-4-4-|-4-4-4-4-4-4-4-4-|
E|-----------------|-----------------|-----------------|

G|-----------------|---|
D|-----------------|---|
A|-----------------|---|
E|-4-4-4-4-4-4-4-4-|-4-|

G|-----------------|-----------------|-----------------|---|
D|-----------------|-----------------|-----------------|---|
A|-----------------|-----------------|-4-4-4-4-4-4-4-4-|---|
E|-4-4-4-4-4-4-4-4-|-4-4-4-4-4-4-4-4-|-----------------|-2-|

G|-----------------|      /|------------------------------|\
D|-6--4--2---------|     / |-6666--4444--2----------------| \ ANOTHER WAY
A|----------4--2---|     \ |----------------4444--2222----| / TO PLAY IT
E|---------------2-|      \|----------------------------2-|/
[ Tab from: http://www.guitartabs.cc/tabs/t/thin_lizzy/dont_belive_a_word_btab.html ]
1.08
G|-----------------|-----------------|-----------------|---|
D|-----------------|-----------------|-----------------|---|
A|-----------------|-----------------|-4-4-4-4-4-4-4-4-|---|
E|-4-4-4-4-4-4-4-4-|-4-4-4-4-4-4-4-4-|-----------------|-2-|

G|-----------------|     /|------------------------------|\
D|-6--4--2---------|    / |-6666--4444--2----------------| \ ANOTHER WAY
A|----------4--2---|    \ |----------------4444--2222----| / TO PLAY IT
E|---------------2-|     \|----------------------------2-|/

G|-----------------|-----------------|-----------------|
D|-----------------|-----------------|-----------------|
A|-6-6-6-6-6-6-6-6-|-6-6-6-6-6-6-6-6-|-4-4-4-4-4-4-4-4-|
E|-----------------|-----------------|-----------------|

G|-----------------|-----------------|-----------------|
D|-----------------|-----------------|-----------------|
A|-4-4-4-4-4-4-4-4-|-4-4-4-4-4-4-4-4-|-4-4-4-4-4-4-4-4-|
E|-----------------|-----------------|-----------------|

G|-----------------|---|
D|-----------------|---|
A|-----------------|---|
E|-4-4-4-4-4-4-444-|-4-|

G|-----------------|-----------------|-----------------|---|
D|-----------------|-----------------|-----------------|---|
A|-----------------|-----------------|-4-4-4-4-4-4-4-4-|---|
E|-4-4-4-4-4-4-4-4-|-4-4-4-4-4-4-4-4-|-----------------|-2-|

G|-----------------|    /|------------------------------|\
D|-6--4--2---------|   / |-6666--4444--2----------------| \ ANOTHER WAY
A|----------4--2---|   \ |----------------4444--2222----| / TO PLAY IT
E|---------------2-|    \|----------------------------2-|/


BRIDGE 1.49
G|-----------------|-----------------|-----------------|------------------|
D|---6----4----2---|-----------------|---6----4----2---|------------------|
A|-----------------|-----------------|-----------------|------------------|
E|-----------------|-----------------|-----------------|------------------|


G|-----------------|-----------------|-----------------|------------------|
D|-----------------|-----------------|-----------------|------------------|
A|-----------------|-----------------|-----------------|------------------|
E|---4----2----0---|-----------------|---4----2----0---|------------------|

OUTRO 2.02
G|-----------------|-----------------|
D|-----------------|-----------------|
A|-----------------|-----------------|
E|-4-4-4-4-4-4-4-4-|-4-4-4-4-4-4-4-4-|

G|-----------------|-----------------|
D|-----------------|-----------------|
A|-----------------|-----------------|
E|-4-4-4-4-4-4-4-4-|-4-4-4-4-4-4-4-4-|

G|-----------------|-----------------|
D|-----------------|-----------------|
A|-----------------|-----------------|
E|-4-4-4-4-4-4-4-4-|-4-4-4-4-4-4-4-4-|

G|-----------------|---|
D|-----------------|---|
A|-----------------|---|
E|-4-4-4-4-4-4-444-|-4-|