Thin Lizzy - Dont Believe A Word Chords & Tabs

 

Dont Believe A Word Chords & Tabs

Thin Lizzy Chords & Tabs

Version: 2 Type: Tab 0 ratings
1 star 2 stars 3 stars 4 stars 5 stars
comments

Dont Believe A Word Tab

   
----------------------------------------------------------------------------
	            Don't Believe a Word - Thin Lizzy
----------------------------------------------------------------------------
Tabbed by:GAC1989
Email:George_c_89@hotmail.com

Tuning: eb-Bb-Gb-Db-Ab-eb

  Intro 

  Guitar 1
e|-------------------------------------------------------------------------|
B|-------------------------------------------------------------------------|
G|-------------------------------------------------------------------------|
D|-----7-5----5\4--------7-5----5\4--------7-5----5\4--------7-5----5\4----|
A|-0-0------0--------0-0------0--------0-0------0--------0-0------0--------|
E|-------------------------------------------------------------------------|
 |Guitar 2                                                                 |
e|-------------------------------------------------------------------------|
B|-------------------------------------------------------------------------|
G|----14-12--12\11------14-12--12\11------14-12--12\11------14-12--12\11---|
D|-------------------------------------------------------------------------|
A|-0-0------0--------0-0------0--------0-0------0--------0-0------0--------|
E|-------------------------------------------------------------------------|

  Guitar 1                            
e|-------------------------------------------------------------------------|
B|-------------------------------------------------------------------------|
G|-----------------------------------------------------------2-------------|
D|-----7-5----5\4--------7-5----5\4--------7-5----5p4p2------2-------------|
A|-0-0------0--------0-0------0--------0-0------0-------3p0--0-------------|
E|-------------------------------------------------------------------------|
 |Guitar 2                                                                 |
e|-------------------------------------------------------------------------|
B|-------------------------------------------------------------------------|
G|-----5-4----4\2--------5-4----4\2--------5-4--4------------2-------------|
D|------------------------------------------------5p4p2------2-------------|
A|-0-0------0--------0-0------0--------0-0--------------3p0--0-------------|
E|-------------------------------------------------------------------------|

  
  Verse 1 and 2 (play twice)

  Guitar 1 
e|-------------------------------------------------------------------------|
B|---------------------------------------------------10-8-6---6------------|
G|-----------------------------------------7-5--7-4---9-7-5---5-5----------|
D|-----7-5----5\4--------7-5----5\4----0-0------------7-5-3---7-5-5--------|
A|-0-0------0--------0-0------0------------8-7--8-5-----------5-3-5--------|
E|----------------------------------------------------------------3--------|
 | x x      x        x x      x                                            |
 |Guitar 2                                                                 |
e|-5----------------------------------------------3------------------------|
B|-5-----------------------------------6----------3------------------------|
G|-5-----------------------------------5----------4-----------7-5----------|
D|-7-----------------------------------7----------5---7-5-3---7-5-5--------|
A|-7-----------------------------------5----------5---7-5-3---5-3-5--------|
E|-5----------------------------------------------3---5-3-1-------3--------|
  
 

  Chorus

  Guitar 1 
e|-------------------------------5-----------5-----------5-----------5-----|
B|-------------------------------6-----------6-----------6-----------6-----|
G|------0------------0-------------5h7---------5h7---------5h7---------5h7-|
D|--------0h2----------0h2--0-0-0-------0-0-0-------0-0-0-------0-0-0------|
A|-------------------------------------------------------------------------|
E|-0-0-0--------0-0-0------------------------------------------------------|
 | x x x        x x x       x x x       x x x       x x x       x x x      |   
 |Guitar 2                                                                 |
e|-------------------------------------------------------------------------|
B|-------------------------------3-1h3-------3-1h3-------3-1h3-------3-1h3-|
G|-------------------------------------------------------------------------|
D|------2-0h2--------2-0h2--0-0-0-------0-0-0-------0-0-0-------0-0-0------|
A|-------------------------------------------------------------------------|
E|-0-0-0--------0-0-0------------------------------------------------------|
   x x x        x x x       x x x       x x x       x x x       x x x          


  Guitar 1 
e|---------------------|
B|---------------------|
G|------------------2--|
D|-------7-5--------2--|
A|-0-0-0------5p3p0-0--|
E|---------------------|
 |Guitar 2             |
e|---------------------|
B|---------------------|
G|------------------2--|
D|-------7-5--------2--|
A|-0-0-0------5p3p0-0--|
E|---------------------|

  Solo (The notes are not synchronized perfectly but the bars are)
  
  Guitar 1
e|---------------------|----------------|-------5----------------|
B|---------------------|----------------|-----5---5--------------|
G|-7b9~~9b7------------|-5b7b5b7b5b7b5--|-7b9-------7-7b9-7b9-7--|
D|---------------------|----------------|------------------------|
A|---------------------|----------------|------------------------|
E|---------------------|----------------|------------------------|
 |Guitar 2                                                       |
e|---------------------|----------------|------------------------|
B|---------------------|----------------|------------------------|
G|---------------------|----------------|------7-5--7-4----------|
D|----------7-5----5\4-|-----7-5----5\4-|-0-0--------------------|
A|------0-0------0-----|-0-0------0-----|------8-7--8-5----------|
E|---------------------|----------------|------------------------|

  Guitar 1
e|--------|-----8-10b12-8-------|----------|-------------17----------------|
B|--------|---------------10-10-|-8\-------|----------17----20b21-20b21-20-|
G|-0/12\2-|-/10-----------------|----0/----|-17-19b21----------------------|
D|--------|---------------------|-------19-|-------------------------------|
A|--------|---------------------|----------|-------------------------------|
E|--------|---------------------|----------|-------------------------------|
 |Guitar 2                                                                 |
e|--------|---------------------|----------|-------------------------------|
B|--------|---------------------|----------|-------------------------------|
G|-(4)----|---------------------|----------|--7-----------5----------------|
D|--------|--7------5------3----|-(3)------|--7-----------5----------5-----|
A|-(5)----|--7------5------3----|-(3)------|--5-----------3----------5-----|
E|--------|--5------3------1----|-(1)------|-------------------------3-----|

[ Tab from: http://www.guitartabs.cc/tabs/t/thin_lizzy/dont_believe_a_word_tab_ver_2.html ]
  Guitar 1
e|----------------|-------------------|---------------------|-20b-20b-20b--|
B|-20-20-20-20-20-|-19-20----18-17----|---------------------|--------------|
G|----------------|-------17-------17-|-16------19b21-17----|--------------|
D|----------------|-------------------|----17------------19-|--------------|
A|----------------|-------------------|-------19------------|--------------|
E|----------------|-------------------|---------------------|--------------|
 |Guitar 2                                                                 |
e|----------------|-------------------|---------------------|--------------|
B|----------------|-------------------|---------------------|--------------|
G|----------------|-------------------|---------------------|-----7-5--7-4-|
D|-(5)------------|-----7-5----5\4----|-----7-5----5\4------|-0-0----------|
A|-(5)------------|-0-0------0--------|-0-0------0----------|-----8-7--8-5-|
E|-(3)------------|-------------------|---------------------|--------------|

 Guitar 1
e|-17--------------17-17-|-17----17-17-----17-17----------------|
B|---20b-20-20b-20-------|----22-------20b-------20-17----------|
G|-----------------------|-----------------------------20-19-17-|
D|-----------------------|--------------------------------------|
A|-----------------------|--------------------------------------|
E|-----------------------|--------------------------------------|
 |Guitar 2                                                      |
e|-----------------------|--------------------------------------|
B|-----------------------|--------------------------------------|
G|-(4)-------------------|--------------------------------------|
D|-----------------------|--7-------------5-------------3-------|
A|-(5)-------------------|--7-------------5-------------3-------|
E|-----------------------|--5-------------3-------------1-------|

 Guitar 1
e|------------------------------------|--17-----------------------------|
B|---------------------------------17-|-----20-17-----17-----20---------|
G|----19b-17----------17----17-19b----|-----------19b----19b----19b-----|
D|-19--------19-17-19----19-----------|---------------------------------|
A|------------------------------------|---------------------------------|
E|------------------------------------|---------------------------------|
 |Guitar 2                                                              |
e|------------------------------------|---------------------------------|
B|------------------------------------|---------------------------------|
G|------------------------------------|--7-------------5----------------|
D|-(3)--------------------------------|--7-------------5-------------5--|
A|-(3)--------------------------------|--5-------------3-------------5--|
E|-(1)--------------------------------|------------------------------3--|

 
Guitar 1
e|---------------------------|
B|---------------------------|
G|-19b-19b-19bd--------------|
D|---------------------------|
A|---------------------------|
E|---------------------------|
 |Guitar 2                   |
e|---------------------------|
B|---------------------------|
G|---------------------------|
D|-(5)-----------------------|
A|-(5)-----------------------|
E|-(3)-----------------------|

  Chorus 2

  Guitar 1 
e|-------------------------------5-----------5-----------5-----------5-----|
B|-------------------------------6-----------6-----------6-----------6-----|
G|------0------------0-------------5h7---------5h7---------5h7---------5h7-|
D|--------0h2----------0h2--0-0-0-------0-0-0-------0-0-0-------0-0-0------|
A|-------------------------------------------------------------------------|
E|-0-0-0--------0-0-0------------------------------------------------------|
 | x x x        x x x       x x x       x x x       x x x       x x x      |   
 |Guitar 2                                                                 |
e|-------------------------------------------------------------------------|
B|-------------------------------3-1h3-------3-1h3-------3-1h3-------3-1h3-|
G|-------------------------------------------------------------------------|
D|------2-0h2--------2-0h2--0-0-0-------0-0-0-------0-0-0-------0-0-0------|
A|-------------------------------------------------------------------------|
E|-0-0-0--------0-0-0------------------------------------------------------|
   x x x        x x x       x x x       x x x       x x x       x x x          


  Guitar 1 
e|---------------------|
B|---------------------|
G|------------------2--|
D|-------7-5--------2--|
A|-0-0-0------5p3p0-0--|
E|---------------------|
 |Guitar 2             |
e|---------------------|
B|---------------------|
G|------------------2--|
D|-------7-5--------2--|
A|-0-0-0------5p3p0-0--|
E|---------------------|

  Verse 3 

  Guitar 1 
e|-------------------------------------------------------------------------|
B|---------------------------------------------------10-8-6---6------------|
G|-----------------------------------------7-5--7-4---9-7-5---5-5----------|
D|-----7-5----5\4--------7-5----5\4----0-0------------7-5-3---7-5-5--------|
A|-0-0------0--------0-0------0------------8-7--8-5-----------5-3-5--------|
E|----------------------------------------------------------------3--------|
 | x x      x        x x      x                                            |
 |Guitar 2                                                                 |
e|-5----------------------------------------------3------------------------|
B|-5-----------------------------------6----------3------------------------|
G|-5-----------------------------------5----------4-----------7-5----------|
D|-7-----------------------------------7----------5---7-5-3---7-5-5--------|
A|-7-----------------------------------5----------5---7-5-3---5-3-5--------|
E|-5----------------------------------------------3---5-3-1-------3--------|

  Bridge

  Guitars 1+2
e|-------------------------------------------------------------------------|
B|-------------------------------------------------------------------------|
G|-------------------------------------------------------------------------|
D|-7--5-5--5-3---5---7--5-5-5--5-3----5---7--5-5-5--5-3----5---7--5-5--5-3-|
A|-7--5-5--5-3---5---7--5-5-5--5-3----5---7--5-5-5--5-3----5---7--5-5--5-3-|
E|-5--3-3--3-1---3---5--3-3-3--3-1----3---5--3-3-3--3-1----3---5--3-3--3-1-|
 
        
  Outro


  Guitar 1
e|-------------------------------------------------------------------------|
B|-------------------------------------------------------------------------|
G|-------------------------------------------------------------------------|
D|-----7-5----5\4--------7-5----5\4--------7-5----5\4--------7-5----5\4----|
A|-0-0------0--------0-0------0--------0-0------0--------0-0------0--------|
E|-------------------------------------------------------------------------|
 |Guitar 2                                                                 |
e|-------------------------------------------------------------------------|
B|-------------------------------------------------------------------------|
G|----14-12--12\11------14-12--12\11------14-12--12\11------14-12--12\11---|
D|-------------------------------------------------------------------------|
A|-0-0------0--------0-0------0--------0-0------0--------0-0------0--------|
E|-------------------------------------------------------------------------|

  Guitar 1                            
e|-------------------------------------------------------------------------|
B|-------------------------------------------------------------------------|
G|-------------------------------------------------------------------------|
D|-----7-5----5\4--------7-5----5\4--------7-5----5\4---5h7--5-------------|
A|-0-0------0--------0-0------0--------0-0------0---------------7----------|
E|-----------------------------------------------------------------5\------|
 |Guitar 2                                                                 |
e|-------------------------------------------------------------------------|
B|-------------------------------------------------------------------------|
G|-----5-4----4\2--------5-4----4\2--------5-4----4\2----------------------|
D|------------------------------------------------------5h7--5-------------|
A|-0-0------0--------0-0------0--------0-0------0---------------7----------|
E|-----------------------------------------------------------------5\------|


| /  slide up
| \  slide down
| h  hammer-on
| p  pull-off
| ~  vibrato
| +  harmonic
| x  Mute note /if underneath a fretted note palm-mute
============================================================================
Comments