Thin Lizzy - Dancing In The Moonlight Chords & Tabs

 

Dancing In The Moonlight Chords & Tabs

Thin Lizzy Chords & Tabs

Version: 4 Type: Tab 0 ratings
1 star 2 stars 3 stars 4 stars 5 stars
comments

Dancing In The Moonlight Tab

Ok this is a song by thin lizzy i tabbed this cos most people's tabs are wrong(sorry if 
caused offence) anyway this is as close as i could get 2 the real thing so enjoy...

bass line plays and when the drums beat kicks in this is played:
|-------------------|
|-8*8-8-------------|
|-7*7-7-7*7-7-5*5-5-|
|-9*9-9-7*7-7-5*5-5-|
|-7*7-7-5*5-5-3*3-3-|
|-------------------|
this is the rhythm played through the verses

these fills are played on the 1st verse because the saxaphone plays the fills on the 2nd verse:
fill 1:
|-0-0-0--0--0-0--|
|-8-8s10-10-8s10-|
|----------------|
|----------------|
|----------------|
|----------------|

fill 2:
|-0--0--0--0--0--0--|
|-15-15-13-13-12-13-|
|-------------------|
|-------------------|
|-------------------|
|-------------------|

chorus:
|-----------------------------|
|-8*8-8-----------------------|
|-7*7-7-7*7-7-5*5-5-----4-4-4-|
|-9*9-9-7*7-7-5*5-5-5-5-4-4-4-|
|-7*7-7-5*5-5-3*3-3-5-5-2-2-2-|
|-------------------3-3-------|
play this twice per chorus
[ Tab from: http://www.guitartabs.cc/tabs/t/thin_lizzy/dancing_in_the_moonlight_tab_ver_4.html ]
the best part the solo:
|--------------------------------------------------------------------------|
|-15bu-15bu,p13-15-17~-17-15-13------12~-14-12-14bd-12-14lbd------12-------|
|------------------------------12h14-------------------------12h14--14-12--|
|--------------------------------------------------------------------------|
|--------------------------------------------------------------------------|
|--------------------------------------------------------------------------|

|-----------15/12-/9-7-7\9\12-----12h15p12------------12h15p12-------------|
|-----------------------------------------12h15p12------------12h15p12-----|
|14-12------12/9--/7-5-5\7\9-----------------------------------------------|
|-----14-12-------------------14bu----------------14bu----------------14bu-|
|--------------------------------------------------------------------------|
|--------------------------------------------------------------------------|

|--------12h15p12-----------12h15p12----------------------------------------|
|----------------12h15p12-----------12h15p12--------------------------------|
|------------------------------------------------14p12----------------12-14-|
|------------------------14bu---------------12h14-----14p12---------12------|
|-----------------------------------------------------------14p12s10--------|
|---------------------------------------------------------------------------|

|-----------------------------------|
|--17-12-15-17-12-15-12-12-22bu,p20-|
|12---------------------------------|
|-----------------------------------|
|-----------------------------------|
|-----------------------------------|

thats it so if the solo seems a bit weird cos the tab lines are so awkward! chears 
guitar 4 letting me use your site!
Comments