Thin Lizzy - Dancin In The Moonlight Chords & Tabs

 

Dancin In The Moonlight Chords & Tabs

Thin Lizzy Chords & Tabs

Version: 2 Type: Tab 0 ratings
1 star 2 stars 3 stars 4 stars 5 stars
comments

Dancin In The Moonlight Tab

   
Dancin in the moonlight
By Thin Lizzy
This is similar to tabs i found but I play it on an acoustic guitar without a cutaway so
i changed the fills to a more accessable places! since its annoying when people dont put
in the words aswel i threw them in but was too lazy to change the solo (thats annoying
eh) hope it helps someone any way

[Bass Intro]
G:---------------------------------------|------------------------------------|
D:-------------2-----2--2------------2---|------------------------------------|
A:-2--2--5--5---------------5--2--5------|---2--2--5--5--3--3-----2-----------|
E:---------------------------------------|------------------------------------|

  Em7   D    C   (G)         fill 1         fill2
e:-7----5----3----3-------/-7-8--7-8----/-12--10--8---7-----------------------|
B:-8----7----5----3-------/-8-10-8-10---/-13--13--10--8-----------------------|
G:-9----7----5----4-------/-------------/-------------------------------------|
D:-9----7----5----5-------/-------------/-------------------------------------|
A:-7----5----3----5-------/-------------/-------------------------------------|
E:-7----5----3----3-------/-------------/-------------------------------------|
[ Tab from: http://www.guitartabs.cc/tabs/t/thin_lizzy/dancin_in_the_moonlight_tab_ver_2.html ]
[Solo]
e:---------------------------------------------------------------------|
B:-------15b(17)-----b(17)15--12--15b(17)-----b(17)15--12--------------|
G:---------------------------------------------------------------------|
D:---------------------------------------------------------------------|
A:---------------------------------------------------------------------|
E:---------------------------------------------------------------------|


e:---------------------------------------------------------------------|
B:-15b(17)--15--12-----------------------------------------------------|
G:----------------------12------12---14--12--14b(16)--14h12--14b(16)---|
D:------------------14------14-----------------------------------------|
A:---------------------------------------------------------------------|
E:---------------------------------------------------------------------|


e:---------------------------------12--10--8--7--7s8s10--12------------|
B:---------------------------------------------------------------------|
G:---------------14-12----12-14-----9---7--5--4--4s5s7--- 9------------|
D:--------14-12--------14----------------------------------------------|
A:--12-14--------------------------------------------------------------|
E:---------------------------------------------------------------------|


e:----------12--15p12----12---------------|I
B:----------12--------15----15-12---------|I
G:--14b(16)------------------------I  X 3-|
D:----------------------------------------|I
A:----------------------------------------|I
E:----------------------------------------|I


e:----------12--15p12----12--------------------------------15-17b(19)17p15----|
B-----------12--------15----15-12--12-----12-----14p12--15p12-----------------|
G:--14b(16)----------------------------------14-------------------------------|
D:----------------------------------------------------------------------------|
A:----------------------------------------------------------------------------|
E:----------------------------------------------------------------------------|
Comments