Thin Lizzy - Cruising In The Lizzymobile Chords & Tabs

 

Cruising In The Lizzymobile Chords & Tabs

Thin Lizzy Chords & Tabs

Version: 1 Type: Tab 0 ratings
1 star 2 stars 3 stars 4 stars 5 stars
comments

Cruising In The Lizzymobile Tab

Thin Lizzy - Cruising In The Lizzymobile

Tabbed By: N. Curran [ irish_blues_rocker@hotmail.com ] 29.08.03

What a band, what a song, what a song name! This is a less well known
Lizzy number, which I got off the Thin Lizzy Box set "Vagabonds Kings
Warriors Angels". It's a strange song, I have no idea what to call 
the different sections, so you'll have to listen to the track to 
match the TAB with the music. I haven't tabbed the solo becuase it 
has loadsa crazy effects, which makes it hell to TAB. I'll give it 
a shot soon and post it up though. Hope this isn't too confusing.

Key:

     5h7    - Hammer-On
     5p7    - Pull-Off
    7^(9)   - Bend Note To Indicated Pitch (In Brackets)
   / Or \   - Slide Up Or Down
     ~~~    - Vibrato
____________________________________________________________________

Intro:

e|-----------------------------------------|---------|
b|-----------------------------------------|---------|
g|-----------------------------------------|-(1)-----|
d|-4--5--3---------------------0-/-2-------|--2------|
a|----------7--5--4------------------------|--2------|
E|-------------------7--5-\-3--------------|--0------|


|-2----4--4--4--4-\-2----2--2---------------|
|-3----5--5--5--5-\-3----3--3---------------|
|-------------------------------------------|
|------------------------------0h2----------|    x2
|-----------------------------------0h2-----|
|----------------------------------------0--|
____________________________________________________________________

Chorus ("Cru-wu-wu-wu..."):

|--------------------------------------|-4--4--4-|
|--------------------------------------|-5--5--5-|
|--------------------------------------|-4--4--4-|
|-4--5--3---------------------0-/-2----|---------|
|----------7--5--4---------------------|---------|
|-------------------7--5-\-3-----------|---------|

|-2----4--4--4--4--2----2--2----------------|
|-3----5--5--5--5--3----3--3----------------|
|-------------------------------------------|
|------------------------------0h2----------|    x2
|-----------------------------------0h2-----|
|----------------------------------------0--|
____________________________________________________________________

Chorus Outro ("Take Care..."):
                                1,             2,
|----------------------------||--------------|-------------------|
|----------------------------||--------------|-------------------|
|----------------------------||--------------|-------------------|
|-4--5--3--------------------||-0-/-2------2-|-0-/-2-------------|
|----------7--5--4-----------||--------------|-------------------|
|-------------------7--5-\-3-||--------3~~~--|--------3~~~--5~~~-|

  3,
|-----------------|-2----4--4--4--4--2----2--2----------------------|
|-----------------|-3----5--5--5--5--3----3--3----------------------|
|-----------------|-------------------------------------------------|
|-2~~~---2~~~---2~|----------------------------0h2-----0h2p0----2---|
|-----------------|--------------------------------0h2--------2---2-|
|-----0------0----|-------------------------------------------------|

To Chorus. Repeat Chorus Outro, with this alternative ending:

|-2----4--4--4--4--2----2--2-------------------------------------|
|-3----5--5--5--5--3----3--3-------------------------------------|
|----------------------------------------------------------------|
|------------------------------0h2-------------------------------|
|-----------------------------------0h2--------------------------|
|----------------------------------------0--(Whammy...mmmmm...)--|
____________________________________________________________________

Verse:
[ Tab from: http://www.guitartabs.cc/tabs/t/thin_lizzy/cruising_in_the_lizzymobile_tab.html ]
|--------------|-----------------|                             \
|--------------|---------------9-|                             |
|--------9--11-|--------9--11----|                             |
|-9--11--------|-9--11-----------|                             |
|--------------|-----------------|                             |
|--------------|-----------------|                             |
                                                               | x4
|---------------------|              |------------------12-|   |
|---------------9--12-|              |------------------0--|   |
|--------9--11--------|   4th Time   |--------9--11--9-----|   |
|-9--11---------------|   -------->  |-9--11---------------|   |
|---------------------|              |---------------------|   |
|---------------------|              |---------------------|   |
                                                               |
|-----------------------------------------------|              |
|---------------9--12--9h12p9-------------------|              |
|--------9--11-----------------11--9------9--11-|              |
|-9--11-------------------------------11--------|              |
|-----------------------------------------------|              |
|-----------------------------------------------|              /
____________________________________________________________________

Guitar Instrumental (Can't Think Of A Better Name...):

|-----------------------------------------------|
|---------------9--12--9h12p9-------------------|
|--------9--11-----------------11--9------9--11-|
|-9--11-------------------------------11--------|
|-----------------------------------------------|
|-----------------------------------------------|


|------------------12--9---------------|
|---------------9--0------12--9--------|
|--------9--11-------------------9--11-|
|-9--11--------------------------------|
|--------------------------------------|
|--------------------------------------|


|-------------------------------|
|---------------9h11^(12)--9~~~-|
|--------9--11------------------|
|-9--11-------------------------|
|-------------------------------|
|-------------------------------|


|------------------12--9------------------|
|-----------------------------------------|
|--------9--11--9---------11p9------9-----|
|-9--11-------------------------11-----11-|
|-----------------------------------------|
|-----------------------------------------|


|-11--------9--------7--------5\---|
|----12-------10-------9-----------|
|-------11-------9-------9---------|   x4
|----------------------------------|
|----------------------------------|
|----------------------------------|
"And you know you learned alot..."

____________________________________________________________________

Chorus
Chorus Outro
Chorus
Chorus Outro
Verse
Guitar Instrumental*
Solo
Chorus

* The Guitar Instrumental Is Repeated With A Few Small Changes Like:

|--------------------------------------14--12-|
|--------------------------12--14--12--0------|
|--------9--11--9--9-/-13---------------------|
|-9--11---------------------------------------|
|---------------------------------------------|
|---------------------------------------------|
____________________________________________________________________

Outro:

|--------------------------------------------------------|
|--------------------------------------------------------|
|-12----7----5----3--------------------------------------|
|-12----7----5----3----------------------2---------------|
|-10----9----7----5----4--2--0-----0--2--2--(Whammy...)--|
|-------------------------------3--------0---------------|
Comments