Thin Lizzy - Cowboy Song Chords & Tabs

 

Cowboy Song Chords & Tabs

Thin Lizzy Chords & Tabs

Version: 2 Type: Tab 0 ratings
1 star 2 stars 3 stars 4 stars 5 stars
comments

Cowboy Song Tab

   
artist:  thin lizzy
song:    the cowboy song
tabed by:pearski(@hotmail.com)


For the first verse its these barre chords:

G# Cm Fm  F C# 

the f and c# are played one after another
[ Tab from: http://www.guitartabs.cc/tabs/t/thin_lizzy/cowboy_song_tab_ver_2.html ]
then the distorted guitar comes playin this:
       
e--------------------------------------------
B--99-----9---------9----------9--------9----
G--------------------------------------------
D-----11-----11--11----11---10---10--10---10-
A--------------------------------------------
E--------------------------------------------


e--------------------------------------------
B--------------------------------------------
G--------------------------------------------
D-8---10--8----------------------------------
A-------------11-11--11--11------------------
E--------------------------------------------

if anyone knows the solos of this song, well then
you are a better man then I, and please email moi
them.


Comments