Thin Lizzy - Cold Sweat Chords & Tabs

 

Cold Sweat Chords & Tabs

Thin Lizzy Chords & Tabs

Version: 1 Type: Tab 1 rating
1 star 2 stars 3 stars 4 stars 5 stars
comments

Cold Sweat Tab

   
Sorry couldn't tab the solo but did everythin else.

Riff A:
e----------------------------------------------
B----------------------------------------------
G---------------2-2-4------------------4-4-2---
D-2-4-4-2-4---2-2-2-4----2-4-4-2-4---2-4-4-2---
A-2-4-4-2-4---2-0-0-2----2-4-4-2-4---2-2-2-0---
E-0-2-2-0-2---0----------0-2-2-0-2---0---------

B:
e-----------------
B-----------------
G-----------------
D---------2-0-----
A-5-4-2-0-----4-2-
E-----------------

C:
  Cold Cold
  D5   E5
e--------
B--------
G-7----9-
D-7----9-
A-5----7-
E--------

D:
e----------------------------------------
B----------------------------------------
G----------------------------------------
D-4--------2-4-4--------2-4--------2-4-4-
A-4--------2-4-4--------2-4--------2-4-4-
E-2--------0-2-2--------0-2--------0-2-2-
[ Tab from: http://www.guitartabs.cc/tabs/t/thin_lizzy/cold_sweat_tab.html ]
E:
e----------------------------------------------
B----------------------------------------------
G---------------4-4-6------------------6-6-4---
D-4-6-6-4-6---4-4-4-6----4-6-6-4-6---4-6-6-4---
A-4-6-6-4-6---4-2-2-4----4-6-6-4-6---4-4-4-2---
E-2-4-4-2-4---2----------2-4-4-2-4---2---------

F:
e------------------------
B------------------------
G-6b-4-------------------
D------6-4---------------
A----------6-4-------4---
E--------------6-4-6---2-

G:
e-------------------
B-------------------
G-----2----4---7--9-
D-4---2----4---7--9-
A-4---0----2---5--7-
E-2-----------------

H:
e-----------
B-----------
G-----------
D-4---2-4-4-
A-4---2-4-4-
E-2---0-2-2-

A x6
B x1
A x2
B x1
C x1
A x4
B x1
A x2
B x1
C x1
D and F simultaneously (F x4, D x1)
A x2
E x2
B x1
D x1
A x2
B x1
A x2
B x1
C x1
F and G simultaneously (F x8, G x2)
B x3
H x1
Comments