Thin Lizzy - Boys Are Back In Town Chords & Tabs

 

Boys Are Back In Town Chords & Tabs

Thin Lizzy Chords & Tabs

Version: 1 Type: Tab 1 rating
1 star 2 stars 3 stars 4 stars 5 stars
comments

Boys Are Back In Town Tab

   
Here are the tabs for Thin Lizzy`s "Boys are back in town"
I listened to a live version of this song and this is what I tabbed out.
Use the other tabs for this song and listen to the song while you try to learn it.

If you have any questions - send me an email... heiko_sparenberg@gmx.de


Intro-Riff (play 4 times)

  A                  B    D
|--------------------------------|
|-------------------------3------|
|-2------------------4----2------|
|-2---4-4-4-2---2-4--4----0------|
|-0-----------4------2-----------|
|--------------------------------|
 

Verse: Guitar One 

|-----------------------------------------------------------|
|-----------------------------------------------------------|
|-----------------------------------------------------------|
|-------------------4---------------------------------------|
|-0--4-----------5-----------4-----2----------5-------------|
|-------------------------------2---------------------------|


Verse: Guitar Two

|-----------------------------------------------------------|
|-------5-----5--7--7--7--7--5-----4-4--4-4---7-7--7-7------|
|-------6-----6--7--6--6--6--6-----4-4--4-4---7-7--7-7------|
|-2--6--6--6--6--7--4--4--4--6--4--4-4--4-4---7-7--7-7------|
|-0-----------------------------4---------------------------|
|-------------------------------2---------------------------|


Verse: Guitar One 

|-----------------------------------------------------------|
|-----------------------------------------------------------|
|-----------------------------------------------------------|
|-----------------3--------2--------------------------------|
|-0--4---------5-----------------2---------5----------------|
|-----------------------------2-----------------------------|


Verse: Guitar Two

|-----------------------------------------------------------|
|------5----5--7--6--6--6--5-----4-4--4-4---7-7--7-7--------|
|------6----6--7--5--5--5--4-----4-4--4-4---7-7--7-7--------|
|-2--6-6--6-6--7--3--3--3--2--4--4-4--4-4---7-7--7-7--------|
|-0---------------------------4-----------------------------|
|-----------------------------2-----------------------------|



Refrain Riff for both guitars:

  A                  B    D
|--------------------------------|
|-------------------------3------|
|-2------------------4----2------|
|-2------------------4----0------|
|-0------------------2-----------|
|--------------------------------|
  The boys are back... 


Lick after the first Refrain:

|-----------------|-----------------|------------------|-------------------------|
|-----------------|-----------------|------------------|-------------------------|
|--------6--6-----|--------6--6-----|---------6--9-----|---------6-7-7-7-7-6-----|
|--7-7p9-------7--|--7-7p9-------7--|--7--7p9-------7--|--7--7p9-------------9---|
|-----------------|-----------------|------------------|-------------------------|
|-----------------|-----------------|------------------|-------------------------|


|---------------------|-----------------|----------------------------|
|---------------------|-----------------|----------------------------|
|--6-----------6-6----|---------6--9----|-------6--9--7--6-----------|
|----7---7-7p9-----7--|--7--7p9------7--|-7-7p9-------------7--------|
|---------------------|-----------------|----------------------9--7--|
|---------------------|-----------------|----------------------------|


Part after the 2nd Refrain: Guitar One

   G                        D                         C#    F#    B         D
|------------------------------------------------------------------------------------|
|--8-8-8-8-8-8-8-8-8-8-8-8-----------------------------------7--------------3--------|
|--7-7-7-7-7-7-7-7-7-7-7-7--7-7-7-7-7-7-7-7-7-7-7-7---6------6----4---------2--------|
|--5-5-5-5-5-5-5-5-5-5-5-5--7-7-7-7-7-7-7-7-7-7-7-7---6------4----4---------0--------|
|---------------------------5-5-5-5-5-5-5-5-5-5-5-5---4-----------2------------------|
|------------------------------------------------------------------------------------|

  F#
|-------------------------------------------|
|-------------------------------------------|
|-------------------------------------------|
|--4----------------------------------------|
|--4----------------------------------------|
|--2------2-2-2-2-2-2-2-2-2-2-2-2-2-2-2-2---|



Part after the 2nd Refrain: Guitar Two

   G                        D                         C#    F#    B         D
|------------------------------------------------------------------------------------|
|--8-8-8-8-8-8-8-8-8-8-8-8-----------------------------------7----4-4-4-4---7-7-7-7--|
|--7-7-7-7-7-7-7-7-7-7-7-7--7-7-7-7-7-7-7-7-7-7-7-7---6------6----4-4-4-4---7-7-7-7--|
|--5-5-5-5-5-5-5-5-5-5-5-5--7-7-7-7-7-7-7-7-7-7-7-7---6------4----4-4-4-4---7-7-7-7--|
|---------------------------5-5-5-5-5-5-5-5-5-5-5-5---4------------------------------|
|------------------------------------------------------------------------------------|
[ Tab from: http://www.guitartabs.cc/tabs/t/thin_lizzy/boys_are_back_in_town_tab.html ]
  F#
|-------------------------------------------|
|-------------------------------------------|
|-------------------------------------------|
|--4----------------------------------------|
|--4----------------------------------------|
|--2------2-2-2-2-2-2-2-2-2-2-2-2-2-2-2-2---|



Part before the great Final:  Play Twice
                                          D        E
|--------|--------------|--------------|------------------------------|
|--------|--------------|--------------|--3--------5-5-5-5-5-5--------|
|--9-----|--------------|--------------|--2--------4-4-4-4-4-4--------|
|-----7--|--5--7--9--4--|--5--7--9--4--|--0--------2-2-2-2-2-2--------|
|--------|--------------|--------------|------------------------------|
|--------|--------------|--------------|------------------------------|


The end of the song:

|-----------------|-----------------|------------------|-------------------------|
|-----------------|-----------------|------------------|-------------------------|
|--------6--6-----|--------6--6-----|---------6--9-----|---------6-7-7-7-7-6-----|
|--7-7p9-------7--|--7-7p9-------7--|--7--7p9-------7--|--7--7p9-------------9---|
|-----------------|-----------------|------------------|-------------------------|
|-----------------|-----------------|------------------|-------------------------|


|---------------------|-----------------|----------------------------|
|---------------------|-----------------|----------------------------|
|--6-----------6-6----|---------6--9----|-------6--7--7--7--7--6-----|
|----7---7-7p9-----7--|--7--7p9------7--|-7-7p9-------------------9--|
|---------------------|-----------------|----------------------------|
|---------------------|-----------------|----------------------------|

|---------------------|-----------------|----------------------------|
|---------------------|-----------------|----------------------------|
|--6-----------6-6----|---------6--9----|-------6--7--7--7--7--6-----|
|----7---7-7p9-----7--|--7--7p9------7--|-7-7p9-------------------9--|
|---------------------|-----------------|----------------------------|
|---------------------|-----------------|----------------------------|

|---------------------|-----------------|----------------------------|
|---------------------|-----------------|----------------------------|
|--6-----------6-6----|---------6--9----|-------6--7--7--7--7--6-----|
|----7---7-7p9-----7--|--7--7p9------7--|-7-7p9-------------------9--|
|---------------------|-----------------|----------------------------|
|---------------------|-----------------|----------------------------|


|--------|----------------|-----------------|----------------------------|
|--------|----------------|-----------10----|-----------7-7-7-7----------|
|--9--6--|-6--6p7p9--9--6-|-6--6p7p9------6-|-6--6p7p9-----------9--7----|
|--------|----------------|-----------------|----------------------------|
|--------|----------------|-----------------|----------------------------|
|--------|----------------|-----------------|----------------------------|


|--------|--------------------|--------------9----|----------------------------------|
|--10----|----------10--10----|----------10-------|----------10--12-12-12-12-10------|
|------9-|--9--9p11---------9-|-9--9p11---------9-|-9--9p11----------------------11--|
|--------|--------------------|-------------------|----------------------------------|
|--------|--------------------|-------------------|----------------------------------|
|--------|--------------------|-------------------|----------------------------------|


|--9-----|-------------9--9------|-------------9--12----|-----------9--10-10-10-10-9----|
|----10--|--10--10p12--------10--|--10--10p12--------10-|-10--10p12------------------12-|
|--------|-----------------------|----------------------|-------------------------------|
|--------|-----------------------|----------------------|-------------------------------|
|--------|-----------------------|----------------------|-------------------------------|
|--------|-----------------------|----------------------|-------------------------------|
|--------|-----------------------|----------------------|-------------------------------|



|--------|---------------------|---------------17----|-------------14-14-14-14----------|
|-17--14-|-14-14p15p17--17--14-|--14--14p15p17----14-|-14-14p15p17-------------17-15----|
|--------|---------------------|---------------------|----------------------------------|
|--------|---------------------|---------------------|----------------------------------|
|--------|---------------------|---------------------|----------------------------------|
|--------|---------------------|---------------------|----------------------------------|


                                             A
|-14-14-14-14--------|-14-14-14-14--------|------|
|-------------17-15--|-------------17-15--|------|
|--------------------|--------------------|--2---|
|--------------------|--------------------|--2---|
|--------------------|--------------------|--0---|
|--------------------|--------------------|------|
Comments