Thin Lizzy - Black Rose Chords & Tabs

 

Black Rose Chords & Tabs

Thin Lizzy Chords & Tabs

Version: 1 Type: Bass Tab 0 ratings
1 star 2 stars 3 stars 4 stars 5 stars
comments

Black Rose Bass Tab

   
-------------------------------------------------------------------------------
			Black Rose - Thin Lizzy
-------------------------------------------------------------------------------

Tabbed By : bighairyscottishgit
e-mail:

Tuning: Drop D

Timing's a bit tricky, play it with the song to find out entrances etc.

Intro
D|--------------------------------------------------------------------------------------|
G|----------------------------------------1--3-4--4-4--4--3--1--------------------------| x2
A|------------------------1--2--4---------------------------------4---6--4--1-----------|
D|-4--4-4--4--3--4--6------------------------------------------------------------(1--3)-|
1st Time

Only Verse 1
D|---------------------------------------------------------------------|
G|-4---------------4----------------4--------------4-------------------|
A|-----2---------------2--4------------2--------------2--4-------------|
D|-------0--------------------------------0----------------------------|

Chorus
D|--------------------------------------------------------------------------------------|
G|----------------------------------------1--3-4--4-4--4--3--1--------------------------| x2
A|------------------------1--2--4---------------------------------4---6--4--1-----------|
D|-4--4-4--4--3--4--6------------------------------------------------------------(1--3)-|
1st Time

Only Verse 2
D|-------------------------------------------------------------------------|
G|-4---------------4----------------4--------------4---------------|   x 2-|
A|-----2---------------2--4------------2--------------2--4-----------------|
D|-------0--------------------------------0--------------------------------|

Chorus
D|--------------------------------------------------------------------------------------|
G|----------------------------------------1--3-4--4-4--4--3--1--------------------------| x2
A|------------------------1--2--4---------------------------------4---6--4--1-----------|
D|-4--4-4--4--3--4--6------------------------------------------------------------(1--3)-|
1st Time

Only Interlude
D|-----------------------------------------------------------------------------------------|
G|----1-4--4-4--4-4--4-4--4-4--4-4--4-4--4-4--3--1--1-1--1-1--1-1--1--4--4-4--4-4--4-4--4--|
A|-4---------------------------------------------------------------------------------------|
D|-----------------------------------------------------------------------------------------|

D|----------------------------------------------------------------------------------------------|
G|-1--1-1--1-1--1-1--1--4--4-4--4-4--4-4--4-------------------------1--1-1--1---------1--4---4--|
A|--------------------------------------------------2--2-2--2-2--2-2--2------------4--4-4-------|
D|----------------------------------------------------------------------------------------------|


D|---------|
G|-6--4----|
A|---------|
D|---------|

D|--------------------------------------------------------------------------------------------|
G|-------4--44-4-4-4----------------4--44-4-4-4--4--4--44-4-4-4---4--44-4-4-4-----------------|
A|----------------------2--22-2-2-2----------------------------------------------2--22-2-2-2--|
D|--------------------------------------------------------------------------------------------|

D|---------------------------------------------------------------------------------------------|
G|------------------------------4--44-4-4-4---------------------------------------4--44-4-4-4--|
A|----------------4--44-4-4-4--------------2--22-2-2-2--6--66-6-6-6--6--66-6-6-6---------------|
D|-6--66-6-6-6---------------------------------------------------------------------------------|

D|--------------------------------------|
G|-----------------4--44-4-4-4-4--------|
A|-2--22--4--44-------------------------|
D|--------------------------------------|

D|-----------------------------------------------------------------------------------------|
G|-1--11-1-1-1--1--11-1-1-1--1--11-1-1-1--1--11-1-1-1--------------------------------------|
A|---------------------------------------------------------------1--11-1-1-1--1--11-1-1-1--|
D|-----------------------------------------------------------------------------------------|
[ Tab from: http://www.guitartabs.cc/tabs/t/thin_lizzy/black_rose_btab.html ]
D|-----------------------------------------------------------------------------------|
G|-------------------------------1--11-1-1-1--1--11-1-1-1--1--11-1-1-1--1--11-1-1-1--|
A|-1--11-1-1-1--1--11-1-1-1----------------------------------------------------------|
D|-----------------------------------------------------------------------------------|

D|-------------------------------------------------------------------------------|
G|-4--44-4-4-4--4--44-4-4-4--4--44-4-4-4--4--44-4-4-4--1--11-1-1-1--1--11-1-1-1--|
A|-------------------------------------------------------------------------------|
D|-------------------------------------------------------------------------------|

D|--------------------------------------------------------------------------------|
G|-4--44-4-4-4--4--44-4-4-4--4--44-4-4-4--1--11-1-1-1--4--44-4-4-4--4--44---------|
A|-------------------------------------------------------------------------2--22--|
D|--------------------------------------------------------------------------------|

D|--------------------------------------------------------------------------------------|
G|-4--44---------4-----4--44-4-4-4---------------4--44-4-4-4--1--11-1-1-1--4--44-4-4-4--|
A|---------4--44----------------------2--22-2-2-2---------------------------------------|
D|--------------------------------------------------------------------------------------|


D|-----------------------------------------------------------------------------------------|
G|----------------4--44-----4-------------------4------4---6--------------4---3---1--------|
A|-2--22-2-2-2--------4--44-----4---4---4---4--4-----------4---4---4---4-------------------|
D|--------------------------------------------------------------------------------------6--|

D|------------------------------------------------------------------------------------------|
G|-------------------------------------1---3---4-----------------------------4-------4---6--|
A|--4---4---4---4---2---2---2---2---4----------4------4----4---4---4---4---4----------------|
D|-----------------------------------------------------6------------------------------------|

D|------------------------------------------------------------------------------------------|
G|-------------------4---3---1-----------------------------------------1---3---4------------|
A|--4---4---4---4------------------4---4---4-------2---2---2---4----------------4-------4---|
D|------------------------------6--------------------------------------------------------6--|

D|-----------------------------------|
G|-------1---3---4-------------------|
A|--4----------------4------4--------|
D|-----------------------6-----------|

D|-------------------------------------------------------------------------------------|
G|----------------------------------------4-------------4------------4-----------4-----|
A|--4--------4--------4--------4-------------4-------------4-----------4------------4--|
D|-------------------------------------------------------------------------------------|

D|------------------------------------------------------------------------------------------------|
G|----------------------4-------------4-----------------------------------------------------------|
A|--4--------4-------------4-------------4--------2---2---2---2--------------------2---2---4---4--|
D|--------------------------------------------------------------------6---6---6---6---------------|

D|----------------------------------------------------------------------------------|
G|----------------------------------------------------------------------------------|
A|--4-----------4---2---2---2---2--------------------2---2---4---4---4-----------4--|
D|------4---6------------------------6---6---6---6-------------------------4---6----|

Verse 3
D|---------------------------------------------------------------------|
G|-4---------------4----------------4--------------4-------------------|
A|-----2---------------2--4------------2--------------2--4-------------|
D|-------0--------------------------------0----------------------------|

Chorus
D|---------------------------------------------------------------------------------------|
G|----------------------------------------1--3-4--4-4--4--3--1---------------------------|   
A|------------------------1--2--4---------------------------------4---6--4--1------------|  x10
D|-4--4-4--4--3--4--6------------------------------------------------------------(1--3)--|
Comments