Thin Lizzy - Angel From The Coast Chords & Tabs

 

Angel From The Coast Chords & Tabs

Thin Lizzy Chords & Tabs

Version: 1 Type: Tab 0 ratings
1 star 2 stars 3 stars 4 stars 5 stars
comments

Angel From The Coast Tab

   
#----------------------------------PLEASE NOTE---------------------------------#
#This file is the author's own work and represents their interpretation of the #
#song. You may only use this file for private study, scholarship, or research. #
#------------------------------------------------------------------------------##

ARTIST: Thin Lizzy
ALBUM:  Jailbreak
TAB:   	Angel From the Coast

Transcribed by: GoraN ScetA
E-mail: jilted@net.hr 

Tuning: E A D G b E

/ - slide
x - scratch (dead note)
~ - vibrato
b - bend
h - hammer-on

Intro: (note: intro is continuing on verse!)

1st guitar (clean)
					    8x
E||---5---3-3-/-5-5-x-10--x--8--x--5-5-5-5----||
B||---7---5-5-/-7-7-x--8--x--7--x--7-7-7-7----||
G||*--7---5-5-/-7-7-x--8--x--8--x--7-7-7-7---*||
D||*--0---0-0-/-0-0-x--0--x--0--x--0-0-0-0---*||
A||-------------------------------------------||
E||-------------------------------------------||

2nd guitar (overdrive) {Riff H}

                            4x                  8x
E||---------------------------|-------------------||
B||-----------------6b7-------|-------------------||
G||*--5h7p5h7p5...-------5---*|--x-x-x-x-x--7~---*||
D||*--0------------------0---*|------------------*||
A||---------------------------|-------------------||
E||---------------------------|-------------------||


Verse:
2nd guitar  {Riff G}
		 3x	
E||-----------------|-------------------||
B||-----------------|-------------------||
G||*---------------*|-------------------||
D||*-----------2---*|-------------------||
A||---------2--0----|--0h2h3--2--4------||
E||--0h2h3----------|------------2------||

[ Tab from: http://www.guitartabs.cc/tabs/t/thin_lizzy/angel_from_the_coast_tab.html ]
Little fill: (note: you'll know where to use it...)
E||---------------|-------------------||
B||---------------|-------------------||
G||---------------|-------------------||
D||------7--------|---7-7-7-7---------||
A||--0---5--------|---5-5-5-5---------||
E||---------------|-------------------||



Then repeat intro and verse (note: intro is continuing on verse!)


1st solo (two overdriven guitars):

1st guitar								      2x
E||--------------------------------------|--------------------------------------||
B||-------8------------------------------|--------------------------------------||
G||*--7-9----9--7~-------7---------------|------7------------------------------*||
D||*-----------------7-9----9--7--5~-----|--7-9----9--7~-------7---------------*||
A||--------------------------------------|-----------------7-9----9--7--5~------||
E||--------------------------------------|--------------------------------------||

2nd guitar		                							    2x
E||-------------------------------------------------|-------------------------------------------------||
B||---------13--------------------------------------|-------------------------------------------------||
G||*--12-14-----14--12~---------12------------------|--------12--------------------------------------*||
D||*----------------------12-14-----14--12--10~-----|--12-14-----14--12~---------12------------------*||
A||-------------------------------------------------|----------------------12-14-----14--12--10~------||
E||-------------------------------------------------|-------------------------------------------------||

Then comes the bridge with lots of scratching and dead notes and second solo but i didn't
tabed it. Yet.... ;-)
All i have is middle of the bridge (those mellow power chords):

E||----------------||
B||----------------||
G||----------------||
D||--5---5---------||
A||--7---3---5-----||
E||----------3-----||


Now play Riff H which is break from bridge and again intro chords and verse (note: and here 
intro is continuing on verse!)

And you finish with Riff G and little fill.

Any corrections or stuff wich isn't here are very welcome!
Hope you'll like it!
 
		-->ChetO
Comments