They Might Be Giants - Why Does The Sun Shine Chords & Tabs

 

Why Does The Sun Shine Chords & Tabs

They Might Be Giants Chords & Tabs

Version: 1 Type: Tab 0 ratings
1 star 2 stars 3 stars 4 stars 5 stars
comments

Why Does The Sun Shine Tab

#----------------------------------PLEASE NOTE---------------------------------#
#This file is the author's own work and represents their interpretation of the #
#song. You may only use this file for private study, scholarship, or research. #
#------------------------------------------------------------------------------##
#


ok, i'm still asking for help on this, but i mad some progress last night:

"Why Does the Sun Shine? (The Sun is a Mass of Incandescent Gas"
by They Might Be Giants


  the sun is a mass of incandescent gas, a gigantic nuclear furnace

E -9--11--9--9------------8------------------------------9---11--9-|
B --------------11--9--11---11--9-------------9--9--9-10-----------|
G ----------------------------------11--10-11----------------------|
D -----------------------------------------------------------------|
A -----------------------------------------------------------------|
E -----------------------------------------------------------------|

  where hydrogen is built into helium at a temperature of millions of degrees
[ Tab from: http://www.guitartabs.cc/tabs/t/they_might_be_giants/why_does_the_sun_shine_tab.html ]
E --9---11-11-9--9-----------------------------------------------------------|
B -------------------11---9-9--11-9----------9--9--9---9---11--11--9---9-----|
G ---------------------------------11-11-11-------------------------------11-|
D ---------------------------------------------------------------------------|
A ---------------------------------------------------------------------------|
E ---------------------------------------------------------------------------|


any suggestions?  i haven't worked on the intro yet.

thanks,
nathan
Ok, this is pretty rough but it sounds good. The rythum in this is bad
if not completely wrong, so ignore it.

The sun is a mass...
---------------------------------------------------|
-1--3--1-1---------------------------------1-3-1---|
------------2---0-2-0-------------------2----------|
--------------3--------3--0-----3--3-3-------------|
----------------------------3-3--------------------|
---------------------------------------------------|

Then vary the same notes to get the right rythum for the words.

The sun is hot... (again for the sun is large)
-----------------|
--3--1-----------|
-------2---------|
---------3-------|
-----------------|
-----------------|

The sun is far away...
----------------|
--3--1----------|
-------2-0---0--|
-----------3----|
----------------|
----------------|

Then the ending bit, sorry don't know the words.

-----------------------------------------------|
------------------------1-1-1-1----------------|
-------0-2---0-2-3---0-------------------------|
----3------3---------------------3-------------|
--3--------------------------------------------|
-----------------------------------------------|


--
"I'd get more sense out of a squashed hedgehog." -Arnold Rimmer
            http://www.angelfire.com/pages7/bryand/
Comments