They Might Be Giants - The Guitar Chords & Tabs

 

The Guitar Chords & Tabs

They Might Be Giants Chords & Tabs

Version: 2 Type: Bass Tab 0 ratings
1 star 2 stars 3 stars 4 stars 5 stars
comments

The Guitar Bass Tab

   
THEY MIGHT BE GIANTS
The Guitar (the lion sleeps tonight)
Tabbed By Jason The Great (DAWgAWD@HoTMaiL.com)

INTRO
G|----------------|
D|-2-2--2--2-2--2-|
A|----------------|
E|----------------|

G|-----------------------------|
D|-----0-2-5-2-----------------|
A|-0-----------3-5---5-3-2-3-2-| (a few times)
E|-----------------------------|

VERSE
G|----------------------------------|
D|-------0-2-5-2--------------------|
A|-0--0-----------3-5--5--5-3-2-3-2-| (however many times)
E|----------------------------------|
[ Tab from: http://www.guitartabs.cc/tabs/t/they_might_be_giants/the_guitar_btab_ver_2.html ]
CHORUS? (the "in the space ship..." part)
G|---|---|---|---|
D|---|---|---|---|
A|-0-|-5-|-0-|---| (twice i do believe)
E|---|---|---|-0-|

STRANGE AUCTIONEER PART?
G|---|
D|---|
A|---| (over and over again)
E|-0-|

okay, this may not be entirely correct, but it's the best i could
figure out, and it sounds pretty damn close to me.  I know that
probably not that many people out there go online looking for TMBG
bass tab, so if you saw this tab, or any of the others i wrote, feel
free to email me, i'm curious of what you think.  (even if you think
it sucks)
Comments