They Might Be Giants - Older Chords & Tabs

 

Older Chords & Tabs

They Might Be Giants Chords & Tabs

Version: 2 Type: Tab 0 ratings
1 star 2 stars 3 stars 4 stars 5 stars
comments

Older Tab

   
-------------------------------------------------------------------------------
			     OLDER - They Might Be Giants
-------------------------------------------------------------------------------
Tabbed by: Informal Skin
Email: motherofturds@hotmail.com

Tuning: Standard (EADGBe)

Intro and verse riff
  **palm mute**
e|---------------------------------------------------------------|
B|---------------------------------------------------------------|
G|---------------------------------------------------------------|
D|--------------5-7---5-5-7-7-8-7--5-3-3-5-5-7-5--3-1-1-3-3-5-3--|
A|--0-5-5-7-7-8-----8--------------------------------------------|
E|---------------------------------------------------------------|
[ Tab from: http://www.guitartabs.cc/tabs/t/they_might_be_giants/older_tab_ver_2.html ]
e|---------------------------------------------------------------|
B|---------------------------------------------------------------|
G|---------------------------------------------------------------|
D|--------------5-7---5-5-7-7-8-7-5-3-3--------------------------|
A|--0-5-5-7-7-8-----8--------------------7-7--5------------------|
E|---------------------------------------------------------------|
Play twice

Lyrics:

Verse 1

You're older than you've ever been,
and now you're even older,
and now you're even older.
You're older than you've ever been,
and now you're older still..

Chorus

     C5 / /
Time  
               A5 / /
is marching on.
         B5 / 
And time...      
                     C5 / / / /
is still marching on.

Verse 2

This day will soon be at an end, 
and now it's even sooner,
and now it's even sooner.
This day will soon be at an end, 
and now it's sooner still.

Harmonica solo.

Repeat Verse 1
Comments