They Might Be Giants - Older Chords & Tabs

 

Older Chords & Tabs

They Might Be Giants Chords & Tabs

Version: 1 Type: Tab 0 ratings
1 star 2 stars 3 stars 4 stars 5 stars
comments

Older Tab

   
Artist: They Might Be Giants
Song: Older
Album: Mink Car
[ Tab from: http://www.guitartabs.cc/tabs/t/they_might_be_giants/older_tab.html ]
Riff 1 ( Notes that are sung tabbed to guitar)
|----------------------------------------------------------------------|
|----------------------------------------------------------------------|
|----------------------0-0-2-3-3-2--0----------0-2-2-0----------0-0----|
|---0-0-0-2-3-3-3---0--------------------3-3-----------3-2-2-3-------3-|
|-0--------------------------------------------------------------------|
|----------------------------------------------------------------------|
 
|-------------------------------------------------------|
|-------------------------------------------------------|
|----------------------0-0-2-3-3-2--0-------------------|
|---0-0-0-2-3-3-3---0--------------------3--3-3-2-2--0--|
|-0-----------------------------------------------------|
|-------------------------------------------------------| 

Chorus ( W/ Dist.:
     C (355XXX)    
Time
              Em (022XXX)
Is marching on
        B(244XXX)
And time
                    C (355XXX)
Is still marching on

Lyrics:
you're older than you've ever been, 
and now you're even older(3x)
you're older than you've ever been
and now you're older still.
time is marching on.
and time is till marching on.
and time is still marching on.
this day will son be at an end,
and now it's even sooner (3x)
this day will soon be at an end,
and now it's sooner still.
Comments