They Might Be Giants - Older Chords & Tabs

 

Older Chords & Tabs

They Might Be Giants Chords & Tabs

Version: 1 Type: Bass Tab

Older Bass Tab

   
Older
They Might Be Giants
Dial-A-Song

Standard tuning
---------------------------------------------------------
Older

Intro:

G|---------------------6-7-9-6-7-7-9-9-10-9-----------|
D|--7--------------7-7--------------------------------|
A|-----5-----5-7-7------------------------------------|
E|----------------------------------------------------|


G|--7-6-6-7-7-9-7----6-----6--------------------------|
D|---------------------9-9---7------------------------|
A|-----------------------------5----------------------|
E|----------------------------------------------------|


G|------------------6-7-9-6-7-7-9-9-10-9--7-6------|
D|--------------7-7---------------------------7----|
A|--5-----5-7-7---------------------------------5--| End Intro
E|-------------------------------------------------|

Verse 1:  (drums only)

You're older than you've ever been
And now you're even older
And now you're even older
And now you're even older
You're older than you've ever been
And now you're even older
And now you're older still

Chorus:

Time
G|---------------------|
D|---------------------|
A|----1---1------------|
E|---------------------|
Is marching on
G|----0---0------------|
D|---------------------|
A|---------------------|
E|---------------------|
And time
G|---------------------|
D|---------------------|
A|----1----------------|
E|---------------------|
Is still marching on
G|---------------------|
D|---------------------|
A|----0--0--0----------|
E|---------------------|

Verse 2:

[ Tab from: http://www.guitartabs.cc/tabs/t/they_might_be_giants/older_btab.html ]
G|----------------------------------------------------|
D|--0--------------------0--0-------------------------|
A|-----------------------------------0--0-------------|
E|-----------3--3-------------------------------------|


G|--0-------------------------------------------------|
D|-----------------------0-----------0--0-------------|
A|----------------------------------------------------|
E|-----------3--3-------------------------------------|

This day will soon be at an end
And now it's even sooner
And now it's even sooner
And now it's even sooner
This day will soon be at an end
And now it's even sooner
And now it's sooner still

Synth solo (same as chorus):

G|----------------------------------------------------|
D|------------0--0------------------------------------|
A|--1--1----------------1------0--0--0----------------|
E|----------------------------------------------------|

Verse 3 (Same as intro):

G|---------------------6-7-9-6-7-7-9-9-10-9-----------|
D|--7--------------7-7--------------------------------|
A|-----5-----5-7-7------------------------------------|
E|----------------------------------------------------|


G|--7-6-6-7-7-9-7----6-----6--------------------------|
D|---------------------9-9---7------------------------|
A|-----------------------------5----------------------|
E|----------------------------------------------------|


G|------------------6-7-9-6-7-7-9-9-10-9--7-6------|
D|--------------7-7---------------------------7----|
A|--5-----5-7-7---------------------------------5--| 
E|-------------------------------------------------|

You're older than you've ever been
And now you're even older
And now you're even older
And now you're even older
You're older than you've ever been
And now you're even older
And now you're older still

End on:

G|--0--0-----|
D|-----------|
A|-----------|
E|-----------|

---------------------------------------------------------
Tabbed by:  Shaun Molthop