They Might Be Giants - Mr X-citement Chords & Tabs

 

Mr X-citement Chords & Tabs

They Might Be Giants Chords & Tabs

Version: 1 Type: Bass Tab 0 ratings
1 star 2 stars 3 stars 4 stars 5 stars
comments

Mr X-citement Bass Tab

Artist: They Might Be Giants
Song: Mr. X-citement (Mike Doughty vs. The ELegant Too vs. TMBG )
Album: Mink Car

Riff 1:
------------------------------------------------------------------------------
----------0-0-----------------------------------------------------------------
-0-0--3-3-----0-0-1-1-3-3-----------------------------------------------------
--------------------------1-1-0-0---------------------------------------------
[ Tab from: http://www.guitartabs.cc/tabs/t/they_might_be_giants/mr_x_citement_btab.html ]
Riff 2:
------------------------------------------------------------------------------
----------0-0-----------------------------------------------------------------
-0-0--3-3-----0-0-1-1-3-3-----------------------------------------------------
--------------------------1-1-3-3---------------------------------------------

Lyrics:

Let it be known. They Might Be Giants, Doughty, The Elegant Too, Mr. 
X-Citement. 

Cafe co pan.....Rock on, my hubba. The Beat is blubba eing stingy on the pike
collect the one into the otha. Careen in tandem, the sea into the landem. The
people in the pix they want to scarf and dig the clamdem. Awwwwwwwww yes!!
Mr. X-citement!!! We nix the glaben. The knifey-knife is taben. Protrude into
the hoobalicous. Scoff the extra aden. I write the mooky. My Verse is extra
spook. Like Flansy in a soda can, it's trooky-trooky-trooky AWwwwwwwwwww Yes!!
Mr. X-citement
Comments