They Might Be Giants - Lie Still Little Bottle Chords & Tabs

 

Lie Still Little Bottle Chords & Tabs

They Might Be Giants Chords & Tabs

Version: 1 Type: Bass Tab 0 ratings
1 star 2 stars 3 stars 4 stars 5 stars
comments

Lie Still Little Bottle Bass Tab

   
they might be giants
lie still little bottle
tabbed by byrd (jason the great)

this might be kind of complex to read, i don't know.
just read it, you should be able to figure it out no problem
if you listen to the song a couple of times.

verse
G|-----------|
D|-------1---|
A|-1-4-3-----|
E|---------1-|

G|-----------------|
D|-----------------|
A|-----------------|
E|-6-6-5-5-4-3-2-1-|
[ Tab from: http://www.guitartabs.cc/tabs/t/they_might_be_giants/lie_still_little_bottle_btab.html ]
the other verse
G|-----------|
D|-----1-3---|
A|-1-4-------|
E|---------1-|

G|-----------------|
D|-----------------|
A|-----------------|
E|-6-6-5-5-4-3-2-1-|

(plays that during the 
'sing this twice' part)
G|-----------------|
D|-----------------|
A|-1-1-4-4-3-3-2-2-|
E|-----------------|

(funky solo thing)
G|-------------|
D|-1-1-1-1-3---|
A|-----------4-|
E|-------------|


Comments