They Might Be Giants - If I Wasnt Shy Chords & Tabs

 

If I Wasnt Shy Chords & Tabs

They Might Be Giants Chords & Tabs

Version: 1 Type: Chords 0 ratings
1 star 2 stars 3 stars 4 stars 5 stars
comments

If I Wasnt Shy Chords

   
Artist: They Might Be Giants
Song: If I Wasn't Shy 
Album: Apollo 18


Intro:
|-----------------------------------|
|------3----------------------------|
|--------1--------------------------|
|--2--------1----0------------------|
|------------------4----------------|
|--------------------3----4--5--7---|


Chorus:     
     E7   E7/B   A7  B7     E7  E7/B  A7  B7
If I,                wasn't Shy
     E7   E7/B   A7  B7     E7  E7/B  A7  B7
If I,                wasn't Shy

( A7 D#9 )
[ Tab from: http://www.guitartabs.cc/tabs/t/they_might_be_giants/if_i_wasnt_shy_crd.html ]
Verse 1:
     E7  Eb7     A7 B7
I'd burn all the uniforms
     D7  Db7       B7
I'd burn all the 'Ask Me' buttons
     E7  Eb7      A7  B7
I'd burn all the intercoms
     D7  Db7      B7
I'd burn all the time clock cards

Chorus:
If I wasn't shy
If I wasn't shy

Verse 2:
I'd steal somebody's Cadillac
I'd steal anything I lack
I'd steal all the microphones
From all the masters of ceremony

Chorus:
If I wasn't shy
If I wasn't shy

Verse 3:
I'd ask you, if you don't mind,
To kiss you a hundred times

Chorus:
If I wasn't shy
If I wasn't shy

Outro:
|-----------------------------------|
|------3----------------------------|
|--------1--------------------------|
|--2--------1----0------------------|
|------------------4----------------|
|--------------------3----4--5--7---|
Comments