They Might Be Giants - I Am A Human Head Chords & Tabs

 

I Am A Human Head Chords & Tabs

They Might Be Giants Chords & Tabs

Version: 1 Type: Bass Tab 0 ratings
1 star 2 stars 3 stars 4 stars 5 stars
comments

I Am A Human Head Bass Tab

-------------------------------------------------------------------------------
			     I AM A HUMAN HEAD - They Might Be Giants
-------------------------------------------------------------------------------

Tabbed By : linnellover14 (Manda)
e-mail: thetangledweb14@gmail.com

It's easy!
Just repeat this through the whole song:
[ Tab from: http://www.guitartabs.cc/tabs/t/they_might_be_giants/i_am_a_human_head_btab.html ]
G|-2-4-6-4-2---2---2---2---2-----------------------------4-4-6-7-6-4---2-4-6-4-2--|
D|-----------4---3---2---1---0-----0--------4-6-7-6-4------------2----------------|
A|-----------------------------2-4---4-2-4----------------------------------------|
E|--------------------------------------------------------------------------------|

G|---2---2---2---2----------------------------------------------------------------|
D|-4---3---2---1---0-----0--------------------------------------------------------|
A|-------------------2-4---4-2-4--------------------------------------------------|
E|--------------------------------------------------------------------------------|

=================================================================================
Comments