They Might Be Giants - Hearing Aid Chords & Tabs

 

Hearing Aid Chords & Tabs

They Might Be Giants Chords & Tabs

Version: 1 Type: Bass Tab 0 ratings
1 star 2 stars 3 stars 4 stars 5 stars
comments

Hearing Aid Bass Tab

tab for they might be giANTS , hearing aid
Hearing Aid
by TheY might Be Giants


this is the meat of the song, the main run, the rest of the song
is a little odd and incosistent
[ Tab from: http://www.guitartabs.cc/tabs/t/they_might_be_giants/hearing_aid_btab.html ]
------------------------------------------------------------
-------------4/5-------4-----------------------------------------
-----5-----5----5-----5-5----4---4-4----4---4-------------------------
----------------------------------5-------5---------------

-----------------------------------------------------------
------------------------------------------------------------
-----------1/2------2----------4/5----4----------------------------
-----3---3-----3---3-3---5---5----5--5-5--------------------

and so on

great reggae line with a lot of real bounce.

Comments