They Might Be Giants - Dark And Metric Chords & Tabs

 

Dark And Metric Chords & Tabs

They Might Be Giants Chords & Tabs

Version: 1 Type: Bass Tab 0 ratings
1 star 2 stars 3 stars 4 stars 5 stars
comments

Dark And Metric Bass Tab

THEY MIGHT BE GIANTS
Dark And Metric
from the MP3 only album "long tall weekend"

tabbed by Jason The Great (DAWgAWD@HoTMaiL.com)

VERSE

G|-------------------5-2-5---5-2---------------5-2-5-2-----------------|
D|---5-2-5---5-2-5---------------5-2---5-2-5-------------------5-------|
A|-----------------5-------5-----------------5---------5-3-2-0---5-2-0-|
E|-5-------5-------------------------5---------------------------------|
[ Tab from: http://www.guitartabs.cc/tabs/t/they_might_be_giants/dark_and_metric_btab.html ]
G|-------------------5-2-5---5-2---------------5-2-5-2-----------------|
D|---5-2-5---5-2-5---------------5-2---5-2-5-------------------5-----2-|
A|-----------------5-------5-----------------5---------5-3-2-0---2-5---|
E|-5-------5-------------------------5---------------------------------|

CHORUS

G|--------------------------------------------------------|
D|-2--2------------------------------------2-2--2--2(x16)-|
A|------5-5--5-3-3--3--------3-3--3-5-5--5----------------|
E|--------------------3-3--3------------------------------|

nearest i can tell, that is it.  the second verse has a little bit of
variation, nothing major, easy enough to figure out.  email me with any
feedback  DAWgAWD@HoTMaiL.com

Comments