They Might Be Giants - Boss Of Me Chords & Tabs

 

Boss Of Me Chords & Tabs

They Might Be Giants Chords & Tabs

Version: 3 Type: Tab 0 ratings
1 star 2 stars 3 stars 4 stars 5 stars
comments

Boss Of Me Tab

   
They Might Be Giants
"Boss of me"
Theme From "Malcom in the middle" 
Tabbed by: Diego "changfoogibperez"(changfoo33@yahoo.com)
Standard tuning (E,A,D,G,B,E)


Intro:(ska strumming)
---8---8---8---8--10--10--10--10---7---7---7---8---8---8--------------------
---8---8---8---8---7---7---7---7---8---8---8---8---8---8--------------------
---9---9---9---9---7---7---7---7---9---9---9---9---9---9-----9-9-9-9-9-9-9--
--10--10--10--10---7---7---7---7--10--10--10--10---10--10----x-x-x-x-x-x-x--
-------------------------------------------------------------7-7-7-7-7-7-7--
----------------------------------------------------------------------------

Chorus:
Strum this chrods, not a big thang.
--------------------
--------------------
------------5----7--
--5----7----5----7--
--5----7----3----5--
--3----5------------

End the chorus with:
-----
-----
-----
--5--
--5--
--3--
[ Tab from: http://www.guitartabs.cc/tabs/t/they_might_be_giants/boss_of_me_tab_ver_3.html ]
First part of the verse:
(clean w/delay)                             G    Em   C   D
--------------------                 --3----0---0---3--
------------5----7--                 --3----0---1---2--
--4----4----5----7-- or you could do --0----0---0---3--
--5----5----5----7-- it this way --> --0----2---2---0--
--5----5----3----5--                 --2----2---3---0--
--3----0------------                 --3----0---0---0--

Second part of the verse:
Same as intro.
---8---8---8---8--10--10--10--10---7---7---7---8---8---8--------------------
---8---8---8---8---7---7---7---7---8---8---8---8---8---8--------------------
---9---9---9---9---7---7---7---7---9---9---9---9---9---9-----9-9-9-9-9-9-9--
--10--10--10--10---7---7---7---7--10--10--10--10---10--10----x-x-x-x-x-x-x--
-------------------------------------------------------------7-7-7-7-7-7-7--
----------------------------------------------------------------------------

At the start of the second chorus there is a tiny variation, instead of starting it 
with the normal chorus, variate with this

---------------
---------------
-------5----7--
--5----5----7--
--5----3----5--
--3------------

then continue with the normal chorus.

Bridge:
Guitar 1
Strum this one out:
---------------------------------------------------------
---------------------------------------------------------
--12--14--15--16--17----/12-11-9-----12-11-12--14---16~--
--x---x---x---x---x--------------12----------------------
--10--12--13--14--15-------------------------------------
---------------------------------------------------------

Guitar 2:
Sorry! don't know... Help!

That's it...!
Comments