They Might Be Giants - Ana Ng Chords & Tabs

 

Ana Ng Chords & Tabs

They Might Be Giants Chords & Tabs

Version: 1 Type: Tab 0 ratings
1 star 2 stars 3 stars 4 stars 5 stars
comments

Ana Ng Tab

   
Artist: They Might Be Giants
Song: Ana Ng
Album: Lincoln

Intro:
E-------------------------------
B-------------------------------
G----------55-77----------55-77-
D-2-22-2-2-55-77-2-22-2-2-55-77-
A-2-22-2-2-33-55-2-22-2-2-33-55-
E-0-00-0-0-------0-00-0-0-------

Verse:
E-----------------------------------------------------------------
B-----------------------------------------------------------------
G----------55-77----------55-77--------------5---7777777------777-
D-2-22-2-2-55-77-2-22-2-2-55-77-2-22-2-2-7-5-5-5-7777777-7777-777-  2x
A-2-22-2-2-33-55-2-22-2-2-33-55-2-22-2-2-7-5-3-5-5555555-7777-555-
E-0-00-0-0-------0-00-0-0-------0-00-0-0-5-3---3---------5555-----

Chorus:
E---------------------------------------------------------------------
B---------------------------------------------------------------------
G------5555-7777-5555----33--55--77-------5555-7777-5555----33--55--77
D-5555-5555-7777-5555----33--55--77--5555-5555-7777-5555----33--55--77  2x
A-5555-3333-5555-3333----11--33--55--5555-3333-5555-3333----11--33--55
E-3333-------------------------------3333-----------------------------
Verse:
E-----------------------------------------------------------------
B-----------------------------------------------------------------
G----------55-77----------55-77--------------5---7777777------777-
D-2-22-2-2-55-77-2-22-2-2-55-77-2-22-2-2-7-5-5-5-7777777-7777-777-  2x
A-2-22-2-2-33-55-2-22-2-2-33-55-2-22-2-2-7-5-3-5-5555555-7777-555-
E-0-00-0-0-------0-00-0-0-------0-00-0-0-5-3---3---------5555-----
[ Tab from: http://www.guitartabs.cc/tabs/t/they_might_be_giants/ana_ng_tab.html ]
Chorus:
E---------------------------------------------------------------------
B---------------------------------------------------------------------
G------5555-7777-5555----33--55--77-------5555-7777-5555----33--55--77
D-5555-5555-7777-5555----33--55--77--5555-5555-7777-5555----33--55--77  2x
A-5555-3333-5555-3333----11--33--55--5555-3333-5555-3333----11--33--55
E-3333-------------------------------3333-----------------------------

Bridge :( no guitar till after the "I don't wan't the world" part )
E------------------------------------------------------------------
B------------------------------------------------------------------
G----------55-77----------55-77----------------5-7-77-----------5--
D-2-22-2-2-55-77-2-22-2-2-55-77-2-22-2-2-7-5-5-5-7-77-7-7-7-7-5-5-5
A-2-22-2-2-33-55-2-22-2-2-33-55-2-22-2-2-7-5-3-5-5-55-5-5-5-7-5-3-5
E-0-00-0-0-------0-00-0-0-------0-00-0-0-5-3-3--------------5-3---3

E-----------------------------------------
B-----------------------------------------
G--7-77-7-7-7------5---7-77-7-7-7-----7-77
D--7-77-7-7-7-7-5--5-5-7-77-7-7-7-7-7-7-77
A--5-55-5-5-5-7-5--3-5-5-55-5-5-5-7-7-5-55
E-------------5-3----3------------5-5-----

Chorus:
E---------------------------------------------------------------------
B---------------------------------------------------------------------
G------5555-7777-5555----33--55--77-------5555-7777-5555----33--55--77
D-5555-5555-7777-5555----33--55--77--5555-5555-7777-5555----33--55--77  2x
A-5555-3333-5555-3333----11--33--55--5555-3333-5555-3333----11--33--55
E-3333-------------------------------3333-----------------------------

Pauses between Chorus repeats at the end till fade
E-----------
B-----------
G--3---5----
D--3---5----
A--1---3----
E-----------
Comments