Thestart - Underwater Song Chords & Tabs

 

Underwater Song Chords & Tabs

Thestart Chords & Tabs

Version: 1 Type: Bass Tab 0 ratings
1 star 2 stars 3 stars 4 stars 5 stars
comments

Underwater Song Bass Tab

   
"The Underwater Song" - theSTART
tabs by beli8 (anabella_8@hotmail.com)

Eb tuning
*  = Repeat [as needed]
h  = Hammer on
p  = Pull off
/  = Slide up
() = Ghost note


Intro            /Chorus
Gb|-------------|-----------------------------------|
Db|-------------|-----------------------------------|
Ab|--7-7-7-7-7--|--5--5--5--5--5--(5)--4h5--5p4-----|
Eb|-------------|-----------------------------------|

Gb|------------------------------------------------------|
Db|----------------------------9--9--9--9--9--9-7h9-9-9--|
Ab|--7--7--7--7--7p6h7--9-9-9----------------------------|
Eb|------------------------------------------------------|

Gb|-----------------------------|
Db|--7--7--7--7--(6)------------|
Ab|------------------7-7-7-7----|
Eb|-----------------------------|


Verse
Gb|------------------------------------------------|
Db|*----------------------------------------------*|
Ab|*------------9-9--9----9-10-11-11--11-12-12----*|
Eb|---10-10--12--------12--------------------------|

[ Tab from: http://www.guitartabs.cc/tabs/t/thestart/underwater_song_btab.html ]
Pre-Chorus
Gb|----------------------------------------------------|
Db|*--4--4--4--4--4--4--4h7-7-------------------/7-7--*|
Ab|*---------------------------5--5--5--5--5--5-------*|
Eb|----------------------------------------------------|


"It'll be allright" (at 2:25)
Gb|-------------------------------------|
Db|-------------------------------------|
Ab|---5----5----7----7------------------|
Eb|-----------------------7----7----5---|


Bridge
Gb|----------------------------------------------------|
Db|*------4--4------4--4------4--4------4--4-----------|
Ab|*--5-5-------5-5-------7-7-------7-7----------------|
Eb|----------------------------------------------------|


Gb|-------8--8------8--8---------9--9------7--7-7------|
Db|---9-9-------9-9------9---7-7-------7-7--------7---*|
Ab|---------------------------------------------------*|
Eb|----------------------------------------------------|


At 3:25, after the bridge, it sounds like he's playing
this muted:
Gb|-------------------------------------------------|
Db|-------------------------------------------------|
Ab|---5--5--5-5-5---7--7--7-7-7---------------------|
Eb|------------------------------7--7--7-7-7--(5)---|
Comments