Thestart - Trinity Chords & Tabs

 

Trinity Chords & Tabs

Thestart Chords & Tabs

Version: 1 Type: Tab 0 ratings
1 star 2 stars 3 stars 4 stars 5 stars
comments

Trinity Tab

   
tabs by beli8 (anabella_8@hotmail.com)


Tuned down half a step (Eb Bb Gb Db Ab Eb)
*    = Repeat [as needed]
p    = Pull off
h    = Hammer on
/    = Slide
()   = Ghost note
P.M. = Palm mute


 Intro/Verse:
Eb|--------------------------------------------------------------
Bb|--------------------------------------------------------------
Gb|*-------------------------------------------------------------
Db|*-------------------------------------------------------------
Ab|------4------------4-----4--------4-----------4---4-----------
Eb|--3-3---3---3-3--3---3-3------3-3---3--3-3--3---3---3---------


Eb|------------------------------|---------------------------------|
Bb|------------------------------|---------------------------------|
Gb|-----------------------------*|---------------------------------|
Db|-----------------------------*|---------------------------------|
Ab|------5----5---5----5h7---7---|------5----5---5----5h7-7-7------|
Eb|--7-7---7----5----5-----5-----|--7-7---7----5----5--------------|
				   ^third time through^

  Last time before change:
Eb|--------------------------------------------------------------
Bb|--------------------------------------------------------------
Gb|--------------------------------------------------------------
Db|--------------------------------------------------------------
Ab|------4-----------4-----4-------4-----------/5-5-5-5----------
Eb|--3-3---3--3-3--3---3-3-----3-3---3--3-3--3-------------------


Eb|----------------------------------|
bB|----------------------------------|
Gb|----------------------------------|
Db|----------------------------------|
Ab|------5----5---5----5h7-7-7-------|
Eb|--7-7---7----5----5---------------|


[ Tab from: http://www.guitartabs.cc/tabs/t/thestart/trinity_tab.html ]
 "Just to feel him again..."
Eb|--------------------------------------------------------------|
Bb|--------------------------------------------------------------|
Gb|*------------------------------------------------------------*|
Db|*------------------------------------------------------------*|
Ab|--------0-0----0-0----0-0-0-0---------0-0----0-0----0-2-2-2---|
Eb|--1-1-1------1------1-----------2-2-2------2------2-----------|
		    Last time ends on this note(hold)^



 The next part might be done with artificial harmonics,
but I can't find them all, sorry :/ Instead, you can play something
like this and maybe add some delay to it:

 "God let me give you back these wings.."
Eb|--------------------------------------------------------------
Bb|--15-15-17-17----------------15-15-17-17----------------------
Gb|*--------------14--14-14-14---------------14--14-14-14--------
Db|*-------------------------------------------------------------
Ab|--------------------------------------------------------------
Eb|--------------------------------------------------------------


Eb|--------15p14h15--15p14h15--17p15h17--17p15h17--19-17-19-17---|
Bb|--15-17-------------------------------------------------------|
Gb|-------------------------------------------------------------*|
Db|-------------------------------------------------------------*|
Ab|--------------------------------------------------------------|
Eb|--------------------------------------------------------------|



  Riff on 2:16(also see below):
Eb|--9h10p9-----7--------|
Bb|---------8-7----------|
Gb|*--------------------*|
Db|*--------------------*|
Ab|----------------------|
Eb|----------------------|

 You can play this bass rythym along with it(for every chord shown,
strum it 4 times):
Eb|-----------------------------------------------------------------------|
Bb|-----------------------------------------------------------------------|
Gb|-----------------------------------------------------------------------|
Db|-----------------------------------------------------------------------|
Ab|--2-2-2-2--7-9--5-5-7-9--2-2-2-2--9-7--2-2-2-2--7-9--5-5-5-5--2-2-2-2--|
Eb|--0-0-0-0--5-7--3-3-5-7--0-0-0-0--7-5--0-0-0-0--5-7--3-3-3-3--0-0-0-0--|
     P.M._______________________________________________________________



  Riff on 2:58:
Eb|---------------------------------------------------------------|
Bb|--------0-----------0-----------0--0---------------------------|
Gb|*---(0)-0-------(0)-0-----------0--0--keep-strumming-chord----*|
Db|*----4-(4)-4-----4-(4)-4--------0--0--------------------------*|
Ab|---2----------0-------------(2)--------------------------------|
Eb|--------------------------3------------------------------------|
Comments