Thestart - Peacocks Chords & Tabs

 

Peacocks Chords & Tabs

Thestart Chords & Tabs

Version: 1 Type: Bass Tab 0 ratings
1 star 2 stars 3 stars 4 stars 5 stars
comments

Peacocks Bass Tab

"Peacocks" - theSTART
tabs by beli8 (anabella_8@hotmail.com)


Standard Tuning
* = Repeat [as needed]
\ = Slide down


Intro (sounds like guitar only,
       might be bass with high tone and distortion)
D|----------------------------------------|
G|----------------------------------------|
A|---------------9-9-9-9------------------|
E|-6-6-6-6-6-6-6----------9-9-9-9-9-------|


D|-----------------------------------------|
G|-----------------------------------------|
A|------------6-8-9---8-6-------13\--------|
E|--6-6-6-6-9-------------9-9-9------------|


D|-----------------------------------------|
G|-----------------------------------------|
A|---------------9-9-9-9------------9hold--|
E|-6-6-6-6-6-6-6----------9-9-9-9-9-7hold--|

Verse
D|-----------------------------------------|
G|*----------------------------------------|
A|*---------------9-9-9-9------------------|
E|--6-6-6-6-6-6-6----------9-9-9-9-9-------|


D|-----------------------------------------|
G|-----------------------------------------|
A|------------6-8-9---8-6------------------|
E|--6-6-6-6-9-------------9----------------|


D|-----------------------------------------|
G|----------------------------------------*|
A|------------6-8-9---8-6-----------------*|
E|--6-6-6-6-6-------------9--7hold---------|

[ Tab from: http://www.guitartabs.cc/tabs/t/thestart/peacocks_btab.html ]
Chorus
G|-----------------------------------------|
D|*----------------------------------------|
A|*-----------------2-2-2-2-2-2-2-2--------|
E|--4-4-4-4-4-4-4-4------------------------|


G|-----------------------------------------|
D|----------------------------------------*|
A|--4-4-4-4-4-4-4-4-2-2-2-2-2-2-2-2-------*|
E|-----------------------------------------|
  Listen for variation last time through


"When the world comes..."
G|-----------------------------------------|
D|*----------------------------------------|
A|*----------------------------------------|
E|--0-0-0-0-0-0-0-0-0-0-0-0-0-0-0-0--------|

G|-----------------------------------------|
D|----------------------------------------*|
A|----------------------------------------*|
E|--9-9--7-9-9--7-9-9--7-9-9---------------|


"We will rise!" at 2:06 - same as intro


"We will rise!" (at 2:55)
G|-----------------------------------|
D|*---------------------------------*|
A|*---------------------------------*|
E|--6-6-6-6-6-6-6-6-6-6-6-6-6-6-6-6--|


"We will rise!" (at 3:07)
G|-------|-----------------------------------|
D|-------|*----------------------------------|
A|--9----|*-------------------------------9--|
E|----9--|--6-6-6-4-6-6-6-4-6-6-6-4-6-6-6----|


G|-----------------------------------------|
D|----------------------------------------*|
A|----------------------------------------*|
E|--9-9-9-9-9-9-9-9-9-9-9-9-9-9-9-9--------|


G|-----------------|
D|-----------------|
A|--9--------------|
E|----9--6hold-----|
Comments