Thestart - Like Days Chords & Tabs

 

Like Days Chords & Tabs

Thestart Chords & Tabs

Version: 1 Type: Bass Tab 0 ratings
1 star 2 stars 3 stars 4 stars 5 stars
comments

Like Days Bass Tab

Like Days
bass tabs

This is notated in standard tuning.
Erick actually plays it in E flat.
But I don't care.

Really easy.  The rhythm isn't really notated.
But you can figure it out.

Intro/Verse/Outro
G----------------------------------|---------------------------------|
D-1-1-1---1-1-1---1-1-1---1-1-1----|---------------------------------|
A----------------------------------|---2-2-2---2-2-2---2-2-2---2-2---|
E----------------------------------|---------------------------------|
B----------------------------------|---------------------------------|
                                 x2                                x2
[ Tab from: http://www.guitartabs.cc/tabs/t/thestart/like_days_btab.html ]
Prechorus
G----------------------------------|------------------------------------|
D-4h6-6-6-6--5-4-------------------|-----------4------------------------|
A---------------------7-7-7-7-7-7--|-6-6-6-6-6---6-4-4-4-4--------------|
E----------------------------------|------------------------------------|
B----------------------------------|------------------------------------|
and i might be dead...           x3


Chorus
G--------------------------------------------|
D--------------------------2-----------2-----|
A-4------2h4p2-4-----2h4p2-------2h4p2-------|
E--------------------------------------------|
B--------------------------------------------|
Comments