Thestart - Life Is Sweet Chords & Tabs

 

Life Is Sweet Chords & Tabs

Thestart Chords & Tabs

Version: 1 Type: Bass Tab 0 ratings
1 star 2 stars 3 stars 4 stars 5 stars
comments

Life Is Sweet Bass Tab

"Life is Sweet" - theSTART
tabs by beli8 (anabella_8@hotmail.com)


Drop D tuning

* = Repeat [as needed]
\ = Slide down


Intro
G|---------------------|-----------------------------------|
D|*-------------------*|-----------------------------------|
A|*-------------------*|-----------------------------------|
D|--0-0-0-0----7-7-7---|---0-0-0-0--0-0-0--3-3-3-3--3-3-3--|


G|-----------------------------|
D|-----------------------------|
A|-----------------------------|
D|--0-0-0-0--0-0-0--10-10-10\--|


Verse part 1
G|---------|---------------------------------------------|
D|*-------*|---------------------------------------------|
A|*-------*|---------------------------------------------|
D|---0-0---|---0-0-0-0-0-0-0-0-10-10-10-10-10-10-10-10---|


Verse part 2 (at 0:40)
G|------------------------------------|-----------------------------------|
D|*----------------------------------*|-----------------------------------|
A|*----------------------------------*|-----------------------------------|
D|--0-0-0-0-0-0-0-0-7-7-7-7-7-7-7-7---|--0-0-0-0-0-0-0-0-3-3-3-3-3-3-3-3--|


G|--------------------------------|
D|--------------------------------|
A|--------------------------------|
D|--0-0-0-0-0-0-0-0-10-10-10\-----|


Chorus
G|---------------------------------------------|
D|*-------------------------------------------*|
A|*-------------------------------------------*|
D|--5-5-5-5----3-3-3-3----1-1-1-1----1-1-1-1---|

[ Tab from: http://www.guitartabs.cc/tabs/t/thestart/life_is_sweet_btab.html ]
On the second chorus, the second time through, play all eighth notes
(also play it this way on the last chorus):
G|--------------------------------------------------------------------|
D|*------------------------------------------------------------------*|
A|*------------------------------------------------------------------*|
D|--5-5-5-5-5-5-5-5-3-3-3-3-3-3-3-3-1-1-1-1-1-1-1-1-1-1-1-1-1-1-1-1---|


Post Chorus
G|----------------------------------------|
D|*--------------------------------------*|
A|*---------------------4----------------*|
D|---4-------2--4----------0----------7---|


Bridge (similar to post chorus, listen for rythym)
G|--------------------------------------------------------|
D|--------------------------------------------------------|
A|--------------------------------------------4-4-4-------|
D|---4--4--4--4--4--4-2--2-2---4--4--4--4--4--------------|


G|--------------------------------------------------------|
D|--------------------------------------------------------|
A|--------------------------------------------------------|
D|---0--0--0--0--0--0--0--0--7--7--7--7--7--7--7--7-------|


G|--------------------------------------------------------|
D|--------------------------------------------------------|
A|--------------------------------------------4-4-4-------|
D|---4--4--4--4--4--4-2--2-2---4--4--4--4--4--------------|


G|--------------------------------------------------------|
D|--------------------------------------------------------|
A|--------------------------------------------------------|
D|---0--0--0--0--0--0--0--0--7--7--7--7--7--7--7-6-5------|
Comments