Thestart - All Or Nothing Chords & Tabs

 

All Or Nothing Chords & Tabs

Thestart Chords & Tabs

Version: 1 Type: Bass Tab 0 ratings
1 star 2 stars 3 stars 4 stars 5 stars
comments

All Or Nothing Bass Tab

"All or Nothing" - theSTART
tabs by beli8 (anabella_8@hotmail.com)

Drop d tuning
*  = Repeat [as needed]
/  = Slide up
() = Ghost note


Verse
G|----------------------------------------|
D|*---------------------------------------|
A|*-6-6-6-6--------6-6-6-6----------------|
D|----------8--(8)---------8--(8)---------|


G|----------------------------------------|
D|---------------------------------------*|
A|---------------------------------------*|
D|--4-4-4-4-4-4-4-4-3-3-3-3-3-3-3-3-------|


Pre-Chorus (listen for rhythm)
G|------------------------------------------------------|
D|------------------------------------------------------|
A|--2----4--/6----4----2-2-2-2-2-2-2-2-2-2-2-2----------|
D|---------------------------------------------6-6-6-6--|


First chorus
G|-------------------------------------------------------------------|
D|-------------------------------------------------------------------|
A|-------------------------------------------------------------------|
D|--4-4-4-4-4-4-4-4-4-4-4-4-4-4-4-4-6-6-6-6-6-6-6-6-6-6-6-6-6-6-6-6--|

G|-------------------------------------------------------------------|
D|-------------------------------------------------------------------|
A|--5-5-5-5-5-5-5-5-5-5-5-5-5-5-5-5-2-2-2-2-2-2-2-2-2-2-2-2-2-2-2-2--|
D|-------------------------------------------------------------------|

[ Tab from: http://www.guitartabs.cc/tabs/t/thestart/all_or_nothing_btab.html ]
Second and third chrous
D|-------------------------------------------------------------------|
G|*------------------------------------------------------------------|
A|*------------------------------------------------------------------|
D|--4-4-4-4-4-4-4-4-4-4-4-4-4-4-4-4-6-6-6-6-6-6-6-6-6-6-6-6-6-6-6-6--|

G|---------------------------------------------------------------------|
D|--------------------------------------------------------------------*|
A|--5-5-5-5-5-5-5-5-5-5-5-5-5-5-5-5-2-2-2-2-2-2-2-2-2-2-2-2-/9-9-9-9--*|
D|---------------------------------------------------------------------|


"Its all or nothing..." (at 2:02)
G|----------------------------------------------------|
D|*---------------------------------------------------|
A|*----------------------1--2--2--2--2--2--2--2--2----|
D|--6--6--6--6--6--6--6-------------------------------|


G|----------------------------------------------------|
D|---------------------------------------------------*|
A|--------------------------------------4--4--4--4---*|
D|--1--1--1--1--1--1--1--1--4--4--4--4----------------|


Verse at 2:29
G|-------------------------------------------------------------|
D|*-----------------------------------------------------------*|
A|*---------(1)----------(1)----------------------------------*|
D|--1-1-1-1------1-1-1-1------1-1-1-1-1-1-1-1-1-1-1-1-1-1-1-1--|


Outro ("Its all or nothing..")
G|-------------------|
D|*-----------------*|
A|*-----------------*|
D|---1-1-1-1--1--1---|
Comments