Therion - The Wild Hunt Chords & Tabs

 

The Wild Hunt Chords & Tabs

Therion Chords & Tabs

Version: 1 Type: Tab 0 ratings
1 star 2 stars 3 stars 4 stars 5 stars
comments

The Wild Hunt Tab

Therion "The Wild Hunt"
Vovin
tabbed by: Drew Schinzel 
4/22/00


Legend:
-------
h hammer on
~ vibrato
/ slide up
\ slide down
* repeat

Standard tuning

 riff 1
|-------------------------------------|
|-------------------------------------|
|-------------------------------------|
|-------------------------------------|
|------7------8----7----5----5/7--7\--|
|-0000---0000---00---00---00----------|

 riff 2
|---------------------------------------------|
|---------------------------------------------|
|*-------------------------------------------*|
|*-------------------------------------------*|
|--5555-8888-5555------5555-8888-5555---------|
|-----------------8888----------------8888----|

|---------------------------------------------|
|---------------------------------------------|
|*-------------------------------------------*|
|*-------------------------------------------*|
|---------------------------------------------|
|--5555-8888-5555-3333-5555-8888-5555-3333----|
[ Tab from: http://www.guitartabs.cc/tabs/t/therion/the_wild_hunt_tab.html ]
 riff 3                                                             
|-------------------------------------|-------------------------------------------------|
|-------------------------------------|-------------------------------------------------|
|--5---5-------------2--2-2-2-2-2-----|-5---5-------------------------------------------|
|--5---5----5---5----2--2-2-2-2-2-----|-5---5----5--5----7--5--7---5--7--5---7-5-7--5-7-| G1
|--3---3----5---5----0--0-0-0-0-0-----|-3---3----5--5----7--5--7---5--7--5---7-5-7--5-7-|
|-----------3---3---------------------|----------3--3----5--3--5---3--5--3---5-3-5--3-5-|
|                                     |                                                 |                               
|-15-13h15----------------------------|-15-13h15----------------------------------------|
|----------15-13h15-17-15h17-18\17-17-|----------15-13h15-17-15-17--15-17-15--15h17p15--|
|-------------------------------------|-------------------------------------------------|
|-------------------------------------|-------------------------------------------------| G2
|-------------------------------------|-------------------------------------------------|
|-------------------------------------|-------------------------------------------------|
                                       Do a semi-trill on the last notes.. you'll hear it
 riff 4                                                                       
|-------------------------------------------------------|
|-------------------------------------------------------|
|-------------------------------------------------------|
|-3--3-3-3--3-3-3--3-3-3--3-3-3--3-3-3--3-3-3--3-3--5---|
|-3--3-3-3--3-3-3--3-3-3--3-3-3--3-3-3--3-3-3--3-3--5---|
|-1--1-1-1--1-1-1--1-1-1--1-1-1--1-1-1--1-1-1--1-1--3---|
                                                                                                                      
|-------------------------------------------------------|
|-------------------------------------------------------|
|-------------------------------------------------------|
|-7--7-7-7--7-7-7--7-7-7--7-7-7--7-7-7--7-7-7--7-7--5---|
|-7--7-7-7--7-7-7--7-7-7--7-7-7--7-7-7--7-7-7--7-7--5---|
|-5--5-5-5--5-5-5--5-5-5--5-5-5--5-5-5--5-5-5--5-5--3---|
                                               
 riff 5                                      
|----------------------------------------------------------------------------------|
|----------------------------------------------------------------------------------|
|----------------------------------------------------------------------------------|
|----------------------------------------------------------------------------------|
|----------------------------------------------------------------------------------|
|-1111-1111-1111-1111-1111-1111-1111-3333-5555-5555-5555-5555-5555-5555-5555-3333--|

 mini sort-of solo  3:15  Play riff 1 guitar one underneath this.
|-13-12------------------13----------15-13-12-----------12~--17-15--17-15--|
|-------15--13-12-13--15----15--13~------------15-13-15--------------------|
|--------------------------------------------------------------------------|
|--------------------------------------------------------------------------|
|--------------------------------------------------------------------------|
|--------------------------------------------------------------------------|

There's another solo after this, but parts of it are a little beyond my abilities.. plus 
i don't  have a wah-wah pedal. hehe.  The last note of the song is an A on the D string
 (7th fret).
Comments