Therion - Sorrows Of The Moon Chords & Tabs

 

Sorrows Of The Moon Chords & Tabs

Therion Chords & Tabs

Version: 1 Type: Tab 0 ratings
1 star 2 stars 3 stars 4 stars 5 stars
comments

Sorrows Of The Moon Tab

Therion "Sorrows of the Moon"
Lepaca Kliffoth
tabbed by: Drew Schinzel 
4/22/00

C# tuning (every string down 1.5 steps)


Legend:
-------
/ slide up
\ slide down


 riff 1                                                               
|----------------------------------|
|----------------------------------|
|-4-4-4------------5-5-5-----------|
|-4-4-4--2--3--2---5-5-5--5--4--2--|
|-2-2-2--2--3--2---3-3-3--5--4--2--|
|--------0--1--0----------3--2--0--|
                                                                    
  Riff 2
|--------------------------------------------|
|--------------------------------------------|
|--------------------------------------------|
|--2--------------------5--------------------| Guitar One
|--2--------------------5--------------------|
|--0--------------------3--------------------|
|                                            |
|-------------------------------7------------|
|----------8-----------------------8-----8---|
|-------------9-----9------9----------9------|
|-----9----------9------9----9---------------| Guitar Two
|--7-----7-----------------------------------|
|--------------------------------------------|

  Sustain the chords underneath guitar two the entire time. The second
  time through the riff, omit the second half of guitar two.                                        

[ Tab from: http://www.guitartabs.cc/tabs/t/therion/sorrows_of_the_moon_tab.html ]
 riff 2                                 Ending            
|------------------------------------|----------------|
|------------------------------------|----------------|
|--//9----------------------9\---5---|-5-5-5-5-5-5-5--|
|--//9----------------------9\---5---|-5-5-5-5-5-5-5--|
|--//7----------------------7\---3---|-3-3-3-3-3-3-3--|
|------------------------------------|----------------|
                                                  
 riff 3                                                             
|-----------------------------------------------------|
|-----------------------------------------------------|
|-------------------------------4--4-4--4-4--5--5-5-5-|
|-2--2-2--2-2--3--3-3-3--3-3-3--4--4-4--4-4--5--5-5-5-|
|-2--2-2--2-2--3--3-3-3--3-3-3--2--2-2--2-2--3--3-3-3-|
|-0--0-0--0-0--1--1-1-1--1-1-1------------------------|
     
|---------------------------------------|
|---------------------------------------|
|-5/-10-10--10\-5-5--5/-10-10--10\-5-5--|
|-5/-10-10--10\-5-5--5/-10-10--10\-5-5--|
|-3/-8--8---8-\-3-3--3/-8--8---8-\-5-5--|
|---------------------------------------|
                                                              
 riff 4                                               
|------------------------------------------------|
|------------------------------------------------|
|-9---6---10---10--9--7----9---6---7---7--9--10--|
|-9---6---10---10--9--7----9---6---7---7--9--10--|
|-7---4---8----8---7--5----7---4---5---5--7--8---|
|------------------------------------------------|
                                                     
 ending                                                            
|----------8---------------------------12--8------8-----|
|-------------10-----10---------10------------10--------|
|----9------------9----------9------9-------------------|
|-7-----7-----------------7-----------------------------|
|-------------------------------------------------------|
|-------------------------------------------------------|
                                                                                                          
|--------------8------------------------|
|-------10--------10-----10-------------|
|----9------9---------9------------7----|
|-7-----------------------------5-------|
|---------------------------------------|
|---------------------------------------|
Comments