Therion - Quetzalcoatl Chords & Tabs

 

Quetzalcoatl Chords & Tabs

Therion Chords & Tabs

Version: 1 Type: Tab 0 ratings
1 star 2 stars 3 stars 4 stars 5 stars
comments

Quetzalcoatl Tab

THERION - QUETZALCOATL
by: ADRIAN MECATL CARMONA
FROM: MEXICO

HEY EVERYONE.... IM A BIG FAN OF THERION, I RECENTLY SAW THEM HERE IN MEXICO GREAT SHOW!!!!!!
IT WAS REALLY AMAZING... I HOPE TO SEE THEM AGAIN SOON
sO.... HERE IT IS MY TAB... I HOPE ITS OK

Artist: Therion
Album: Lemuria
Song: Quetzalcoatl
Tunning: Standard


INTRO

GUITAR 1
e ------------------------------------------|
B ------------------------------------------|
G ------------------------------------------|
D ---7-7--10P9-----9-10-9-9/7----12-10-9-10-|
A -7-----------10---------------------------|
E ------------------------------------------|

-----------------------------------------|
-----------------------------------------|
-----------------------------------------|
---7-7--10P9-----9-10-9-9/7--------------|
-7-----------10--------------------------|
-----------------------------------------|


GUITAR 2
-----------------------------------------|
-----------------------------------------|
-----------------------------------------|
-7--7-7--5-5--3-5--7--7-7--7-7--7-7------|
-7--7-7--5-5--3-5--7--7-7--7-7--7-7------|
-5--5-5--3-3--1-3--5--5-5--5-5--5-5------|


-----------------------------------------|
-----------------------------------------|
-----------------------------------------|
-7--7-7--5-5--3-5--7--7-7--7-7--7-7------|
-7--7-7--5-5--3-5--7--7-7--7-7--7-7------|
-5--5-5--3-3--1-3--5--5-5--5-5--5-5------|


VERSE (THIS PART ITS WITHOUT GUITAR) HERE.. SOME CHORDS THAT CAN BE USEFUL

-7-----7------------------------------------------|
-8-----7-------------8--------------------7-------|
-9-----8-------9---9-----9-------8------8---------|
-9-AND-9-----9---9-----9---9---9---9--9------9----|  JUST TO FILL WITH GUITAR THE VERSES
-7-----9---7-----------------9------9---------9---|
-7-----7------------------------------------------|

CHORUS
-----------------------------------------|
-----------------------------------------|
-5-5-5-5---------------------9-9-9-9-----|
-5-5-5-5--5-5-5-5---9-9-9-9--9-9-9-9-----|
-3-3-3-3--5-5-5-5---9-9-9-9--7-7-7-7-----|
----------3-3-3-3---7-7-7-7--------------|

-----------------------------------------|
-----------------------------------------|
-5-5-5-5---------------------------------|
-5-5-5-5--5-5-5-5---8-8-8-8--9-9-9-9-----|
-3-3-3-3--5-5-5-5---8-8-8-8--9-9-9-9-----|
----------3-3-3-3---6-6-6-6--7-7-7-7-----|
[ Tab from: http://www.guitartabs.cc/tabs/t/therion/quetzalcoatl_tab.html ]
BRIDGE
GUITAR 1
---------------------------------------------------------|
---------------------------------------------------------|
---------------------------------------------------------|
-------7-------9-7~--------------7-------9-7~------------|
-7-7-9---9-9-7-------9-7---7-7-9---9-9-7------9-7---X3---|
---------------------------------------------------------|


GUITAR 2
-----------------------------------------|
-----------------------------------------|
-----------------------------------------|
-7-7-7-7/-9-9-9-9------------------------|
-7-7-7-7/-9-9-9-9------------------------|
-5-5-5-5/-7-7-7-7------------------------|


BRIDGE 2

-----------------------------------------|
-----------------------------------------|
-9--9-9--7-7--5-7--9--9-9----------------|
-9--9-9--7-7--5-7--9--9-9-- 7/9/10\9 ----|  X2
-7--7-7--5-5--3-5--7--7-7-- 5/7/8 \7 ----|
-----------------------------------------|

VERSE
CHORUS
BRIDGE 1

FINAL PART
GUITAR 1
-----------------------------------------------------|
-----------------------------------------------------|
-----------------------------------------------------|
-----------------------------------------------------|
---7-7--10P9-----9-10-9-9/7---10-10-10-9-9-9-9/7-----|
-7-----------10--------------------------------------|


------------------------------|
------------------------------|
------------------------------|
------------------------------|
---7-7--10P9-----9-10-9-9/7---|
-7-----------10---------------|

-----------------------------------------------------|
-----------------------------------------------------|
-----------------------------------------------------|
-----------------------------------------------------|
---7-7--10P9-----9-10-9-9/7---10-10-10-9-9-9-9/7-----|
-7-----------10--------------------------------------|


------------------------------|
------------------------------|
------------------------------|
------------------------------|
---7-7--10P9-----9-10-9-9/7---|
-7-----------10---------------|


GUITAR 2

-----------------------------------------|
-----------------------------------------|
-9--9-9--7-7--5-7--9--9-9----------------|
-9--9-9--7-7--5-7--9--9-9-- 7/9/10\9 ----|  X4
-7--7-7--5-5--3-5--7--7-7-- 5/7/8 \7 ----|
-----------------------------------------|


ENDING

-----------------------------------------|
-----------------------------------------|
-5------------------------9--------------|
-5-----9------5---5-4-----9--------------|
-3-----9------5---5-4-----7--------------|
-------7------3---3-2--------------------|

FOR COMMENTS AND CORRECTIONS PLEASE SEND ME A MAIL deanroland@hotmail.com THANKS!!!   VIVA MEXICO!!!!!!!
Comments