Therion - Lepaca Kliffoth Chords & Tabs

 

Lepaca Kliffoth Chords & Tabs

Therion Chords & Tabs

Version: 1 Type: Tab 0 ratings
1 star 2 stars 3 stars 4 stars 5 stars
comments

Lepaca Kliffoth Tab

Therion "Lepaca Kliffoth"
Lepaca Kliffoth
Tabbed by: Drew Schinzel analogkid82@yahoo.com
4/27/00

Legend:
* repeat
~ vibrato

C# tuning (every string down 1.5 steps)

  Riff 1 0:35  This may be doubled an octave higher
|-----------------------------------------------------|
|-----------------------------------------------------|
|*---------------------------------------------------*|
|*---------------------------------------------------*|  Guitar One
|---3--3--3--3--3--3--3--3--3--3--3--3--3--3--3--3----|
|-----------------------------------------------------|
|                                                     |
|-----------------------------------------------------|
|-----------------------------------------------------|
|*---------------------------------------------------*|
|*--2--2--2--2--4--4--4--4--5--5--5--5--4--4--4--4---*|  Guitar Two
|---2--2--2--2--4--4--4--4--5--5--5--5--4--4--4--4----|
|---0--0--0--0--2--2--2--2--3--3--3--3--2--2--2--2----|

|-----------------------------------------------------|
|-----------------------------------------------------|
|*---------------------------------------------------*|
|*---------------------------------------------------*|  Guitar One
|---2--2--2--2--2--2--2--2--2--2--2--2--2--2--2--2----|
|-----------------------------------------------------|
|                                                     |
|-----------------------------------------------------|
|-----------------------------------------------------|
|*---------------------------------------------------*|
|*--2--2--2--2--4--4--4--4--5--5--5--5--4--4--4--4---*|  Guitar Two
|---2--2--2--2--4--4--4--4--5--5--5--5--4--4--4--4----|
|---0--0--0--0--2--2--2--2--3--3--3--3--2--2--2--2----|


  Riff 2 1:09
|-----------------------------------------------------|
|-----------------------------------------------------|
|*---------------------------------------------------*|
|*--2--2--2--2--2--2--2--2--2--2--2--2--2--2--2--2---*|  Guitar One
|-----------------------------------------------------|
|-----------------------------------------------------|
|                                                     |
|-----------------------------------------------------|
|-----------------------------------------------------|
|*---------------------------------------------------*|
|*--2--2--2--2--4--4--4--4--5--5--5--5--4--4--4--4---*|  Guitar Two
|---2--2--2--2--4--4--4--4--5--5--5--5--4--4--4--4----|
|---0--0--0--0--2--2--2--2--3--3--3--3--2--2--2--2----|

[ Tab from: http://www.guitartabs.cc/tabs/t/therion/lepaca_kliffoth_tab.html ]
|-----------------------------------------------------|
|-----------------------------------------------------|
|*---------------------------------------------------*|
|*--0--0--0--0--0--0--0--0--0--0--0--0--0--0--0--0---*|  Guitar One
|-----------------------------------------------------|
|-----------------------------------------------------|
|                                                     |
|-----------------------------------------------------|
|-----------------------------------------------------|
|*---------------------------------------------------*|
|*--2--2--2--2--4--4--4--4--5--5--5--5--4--4--4--4---*|  Guitar Two
|---2--2--2--2--4--4--4--4--5--5--5--5--4--4--4--4----|
|---0--0--0--0--2--2--2--2--3--3--3--3--2--2--2--2----|


 Riff 3 1:55
|-----7-8-7----7-----7-8-7----10-8-7--|
|--10-------10----10-------10---------|
|*-----------------------------------*|
|*-----------------------------------*|
|-------------------------------------|
|-------------------------------------|

|-----------------------------------------------|
|-----10-11-10-----10-----10-11-10----13-11-10--|
|*-12-----------12-----12----------12----------*|
|*---------------------------------------------*|
|-----------------------------------------------|
|-----------------------------------------------|

|-----10-11-10----10-----10-11-10----13-11-10---|
|--13----------13-----13----------13------------|
|*---------------------------------------------*|
|*---------------------------------------------*|
|-----------------------------------------------|
|-----------------------------------------------|

|-----9-10-9----9------9-10-9----12-10-9--------|
|--12--------12-----12--------12----------------|
|*---------------------------------------------*|
|*---------------------------------------------*|
|-----------------------------------------------|
|-----------------------------------------------|

  Riff 4 2:37
|-----------------------------------------------------------|
|-----------------------------------------------------------|
|-----------------------------------------------------------|
|--6-8-9-8-6-------10-10--9-9~---5-7-8-7-5-------9-9--8-8~--|
|------------8-7~--------------------------7-6~-------------|
|-----------------------------------------------------------|

When changing over from riff 4 to riff 5, play the first 6 notes of riff 4, then 
switch to the octave (riff 5) right in the middle.

  Riff 5  
|------------------------------------------------------------------------|
|--9-11-12-11-9--------13-13--12-12~---8-10-11-10-8-------12-12--11-11~--|
|---------------10-9~-------------------------------9-8~-----------------|
|------------------------------------------------------------------------|
|------------------------------------------------------------------------|
|------------------------------------------------------------------------|
|                                                                        |
|------------------------------------------------------------------------|
|------------------------------------------------------------------------|
|------------------------------------------------------------------------|
|--2--2--2--2--2--2--2--2--2--2--2--2--2--2--2--2--2--2--2--2--2--2--2---|
|--2--2--2--2--2--2--2--2--2--2--2--2--2--2--2--2--2--2--2--2--2--2--2---|
|--0--0--0--0--0--0--0--0--0--0--0--0--0--0--0--0--0--0--0--0--0--0--0---|
Comments