Therion - Flesh Of The Gods Chords & Tabs

 

Flesh Of The Gods Chords & Tabs

Therion Chords & Tabs

Version: 1 Type: Tab 0 ratings
1 star 2 stars 3 stars 4 stars 5 stars
comments

Flesh Of The Gods Tab

   
Therion "Flesh of the Gods"
Deggial
Tabbed by: Drew Schinzel  
2/25/00

C# tuning

Legend:
-------
/ slide up
\ slide down


 Riff 1. repeat first part once.  2nd guitar plays riff 5 underneath                         
|-------------------------------------|
|---12----------10--------------------|
|-9----9--11-12----12--11h12p11-------|
|-------------------------------12----|
|-------------------------------------|
|-------------------------------------|
                                                                                                                
|-------------------------------------------------------------|
|----15-----------13-----------13-----------------------------|
|-12----12--14-16----16-14-16-----16-14-12--14-16-14h16p14-12-|
|-------------------------------------------------------------|
|-------------------------------------------------------------|
|-------------------------------------------------------------|
                                                                 
 Riff 2                                                               
|---------------------|--------------------------------------|
|---------------------|--------------------------------------|
|-----7------8----7---|------7-----8----7--------------------|
|-----7------8----7---|------7-----8----7--5--5/7--8\7--5/7--|
|-0-0-5--0-0-6--0-5---|-0-0--5-0-0-6--0-5--5--5/7--8\7--5/7--|
|---------------------|--------------------3--3/5--6\5--3/5--|
                                                                    
[ Tab from: http://www.guitartabs.cc/tabs/t/therion/flesh_of_the_gods_tab.html ]
 riff 3 Play once, then repeat the first part before next riff       
|------------------------------------------------------------|
|------------------------------------------------------------|
|---------------7--7-7--7-7----------------------------------|
|-5--5-5--5-5---7--7-7--7-7---7-7--7--5-7--7--7-7--5/7--7----|
|-5--5-5--5-5---5--5-5--5-5---7-7--7--5-7--7--7-7--5/7--7----|
|-3--3-3--3-3-----------------5-5--5--3-5--5--5-5--3/5--5----|
                                                                        
 riff 4                                                               
|------------------------------------------------------------|
|------------------------------------------------------------|
|--9--9-9--5-5---9--9-9--5-5-----------7-7-------------------|
|--9--9-9--5-5---9--9-9--5-5---5--5-5--7-7---2--2-2--5-5-----|
|--7--7-7--3-3---7--7-7--3-3---5--5-5--5-5---2--2-2--5-5-----|
|------------------------------3--3-3--------0--0-0--3-3-----|
                                                                     
 riff 5                                                              
|-----------------------------------------|
|-----------------------------------------|
|-9----9----9----9-7-9----9----9----9-7---|
|-9----9----9----9-7-9----9----9----9-7---|
|-7-77-7-77-7-77-7-5-7-77-7-77-7-77-7-5---|
|-----------------------------------------|
                                                                                                                                        
|-----------------------------------------|
|--8----8----8----8-----------------------|
|--7----7----7----7----5----5----2--4-----|
|--5-55-5-55-5-55-5-55-5----5----2--4-----|
|----------------------3-33-3-33-0--2-----|
|-----------------------------------------|
 For the end of the song, slow down the riff and end with an E5
Comments