Therion - Dawn Of Perishness Chords & Tabs

 

Dawn Of Perishness Chords & Tabs

Therion Chords & Tabs

Version: 1 Type: Bass Tab 0 ratings
1 star 2 stars 3 stars 4 stars 5 stars
comments

Dawn Of Perishness Bass Tab

Bass-solo of "Dawn Of Perishness"
By "Therion"
Taken from the album "Symphony Masses"
Transcribed by Roland de Graauw
Send comment or suggestions to graauw@pi.net

(This solo comes in after about 2:26 minutes)

e: 8th note      s: 16th note

Play VERY fast

G   -------------------|-------------------|--------------------|
D   -----7-9-10-9-7----|--------7------7-9-|-10-9-7-------------|
A   --7-------------10-|-7-9-10---7-10-----|--------10-9-7-9-10-|
E   -------------------|-------------------|--------------------|
      e  s s s  s s s    s s s  s s s  s s    s s s s  s s s s 

G   -------------------|
D   --10-9-7----9-7-7--|
A   ---------10--------|
E   -------------------|
       s s s s  s s e 
[ Tab from: http://www.guitartabs.cc/tabs/t/therion/dawn_of_perishness_btab.html ]
G   -------------------|-------------------|------------------|
D   --------------7-9--|-10-9-7------------|--------------7-9-|
A   -----6-7-9-10------|--------10-9-6-7-9-|-----6-7-9-10-----|
E   --7----------------|-------------------|-7-8--------------|  
      e  s s s s  s s     s s s s  s s s s   s s s s s s  s s

G   -------------------|
D   --10-9-7-----------|
A   ---------10-9-7-6--|
E   -------------------|
       s s s s  s s e

G   ------------------|------------------|------------------|
D   ---------5-7-8-7--|-5-----------5-7--|-8-7-5------------|
A   --5--7-8----------|---8-7-5-7-8------|-------8-7-5-7-8--|
E   ------------------|------------------|------------------|
      e  s s s s s s    s s s s s s s s    s s s s s s s s

G   ------------------|
D   --8-7-5-----------|
A   --------8-7-5-5---|
E   ------------------|
      s s s s s s e

G   ------------------|-----------------|------------------|
D   -------------5-7--|-8-7-5-----------|-------------5-7--|
A   -----4-5-7-8------|-------8-7-4-5-7-|-----4-5-7-8------|
E   --5---------------|-----------------|-5-6--------------|
      e  s s s s s s    s s s s s s s s   s s s s s s s s

G   ------------------|
D   --8-7-5-----------|
A   --------8-7-5-4---|
E   ------------------|
      s s s s s s e
Comments