Therion - Crazy Nights Chords & Tabs

 

Crazy Nights Chords & Tabs

Therion Chords & Tabs

Version: 1 Type: Tab 0 ratings
1 star 2 stars 3 stars 4 stars 5 stars
comments

Crazy Nights Tab

Therion "Crazy Nights"
Crowning of Atlantis
tabbed by: Drew Schinzel  8/11/99

Legend:
-------
p pull off

notes: Here's the kick-ass cover off of the new Therion MCD.  They play the
song in C# tuning, but this is in standard, just because they don't use any
chords or notes lower  than the standard E5 so it makes no difference what
tuning you play it in really. This one's a lot of fun.
[ Tab from: http://www.guitartabs.cc/tabs/t/therion/crazy_nights_tab.html ]
 riff 1                                                                     
|-----------------------------------|
|-----------------------------------|
|-2---------4-----------------------|
|-2---------4---------2---4--5--4---|
|-0---------2---------2---4--5--4---|
|---2-2-2-----2-2-2---0---2--3--2---|
                                                                          
 riff 2                                                                      
|----------------------------------------------------------------------|
|----------------------------------------------------------------------|
|--2-----------------2------------------2-------------------2-------4--|
|--2--------4--------2--------4---------2--------4----------2---2---4--|
|--0--------4--------0--------4---------0--------4----------0---2---2--|
|----2-2-2--2--2-2-2---2-2-2--2--2-2-2----2-2-2--2--2-2-2-------0------|
                                                                            
 riff 3             riff 4                      
|---------------------|---------------------------------|
|---------------------|---------------------------------|
|--2--4---2--4---2-4--|-2----2-4----2---2----2-4----2---|
|--2--4---2--4---2-4--|-2-4--2-4--4-2---2-4--2-4--4-2---|
|--0--2---0--2---0-2--|---4-------4-------4-------4-----|
|---------------------|---------------------------------|
   
Riff 1 6x
Riff 2 2x
Riff 3 1x
Riff 1 2x
Riff 2 2x
Riff 3 1x
Riff 4 1x
                                           
This is the chorus riff, the timings tabbed here are for the first time through,
just listen to see how it should sound.  When they repeat the chorus later on,
they use the timing of the second bar during the first bar also.  Mess around with
it a little, I don't even think Johnsson himself tried to keep a consistent chorus
rhythm throughout the song, and it really doesn't matter. :)  
 
 riff 5                                                                 
|-----------------------------------------------|
|-----------------------------------------------|
|-----------------------------------------------|
|-----------------------------------------------|
|-0-000000--2-222222--555-444-2p0-000--2-222----|
|-----------------------------------------------|
                                                                                                                                                     
|---------------------------------------------|
|---------------------------------------------|
|---------------------------------------------|
|---------------------------------------------|
|-0-00-000--2-22-222--555-444-2p0--00000000---|
|---------------------------------------------|
    
Riff 5 1x
Riff 1 4x
Riff 2 2x
Riff 3 1x
Riff 4 1x
Riff 5 1x
                                                                      
 riff 6                                     second ending                       
|------------------------------------------|------------|
|------------------------------------------|------------|
|-----------2-------------4------------7---|--2-----4---|
|--4-4-2-4--2---4--4-2-4--4---4-4-2-4--7---|--2--2--4---|
|--4-4-2-4--0---4--4-2-4--2---4-4-2-4--5---|--0--2--2---|
|--2-2-0-2------2--2-0-2------2-2-0-2------|-----0------|
                                                                      
 riff 7                                                                    
|--------------------------------------------------------------------------|
|--------------------------------------------------------------------------|
|--2------------------2------------------2---------------------------------|
|--2--------2---------2--------2---------2--------2----------2---4--5--4---|
|--0--------2---------0--------2---------0--------2----------2---4--5--4---|
|----2-2-2--0--2-2-2----2-2-2--0--2-2-2----2-2-2--0--2-2-2---0---2--3--2---|
                                                                          
 riff 8                                
|-------------------------------------|
|-------------------------------------|
|--5---------7------------------------|
|--5---------7----------5---7--8--7---|
|--3--0-0-0--5--0-0-0---5---7--8--7---|
|-----------------------3---5--6--5---|

Riff 6 2x  
Riff 7 2x
Riff 8 2x
Riff 7 1x
Riff 5 1x
Riff 1 until fade
Comments