Therion - Asgard Chords & Tabs

 

Asgard Chords & Tabs

Therion Chords & Tabs

Version: 1 Type: Tab 0 ratings
1 star 2 stars 3 stars 4 stars 5 stars
comments

Asgard Tab

   
Song:      Asgard
Artist:    Therion (www.megatherion.com)
Album:     Secret of the Runes
Tuning:    E
Tabbed by: Qth - quorthon@mailcity.com
COMENTS:

Undone, needs a lot of corrections and it needs the solo part.
Coments Welcomed


Key:
/ \=slide
p=pull off
h=hammer on
~=vibrato
=muted

RIFF 1
|--------------------------------------------------------------------|
|--10-1010101010-11-13-11--------------------------------------------|
|--------------------------------------------------------------------|
|--------------------------------------------------------------------|
|--------------------------------------------------------------------|
|--------------------------------------------------------------------|

RIFF 2
|--------------------------------------------------------------------|
|-8-10p8-11p8-10p8-11p8-10p8-11p8------------------------------------|
|--------------------------------------------------------------------|
|--------------------------------------------------------------------|
|--------------------------------------------------------------------|
|--------------------------------------------------------------------|


RIFF 3
|--------------------------------------------------------------------|
|--------------------------------------------------------------------|
|--------------------------------------------------------------------|
|-7-77777-7-77777-7-77777-7-3-5-7------------------------------------|
|-7-77777-7-77777-7-77777-7-3-5-7------------------------------------|
|-5-55555-5-55555-5-55555-5-1-3-5------------------------------------|

RIFF 4
|--------------------------------------------------------------------|
|--------------------------------------------------------------------|
|--------------------------------------------------------------------|
|-7-77777-7-77777-7-77777-7-3-5-3-33333-2-3-5-55555-3-5-7------------|
|-7-77777-7-77777-7-77777-7-3-5-3-33333-2-3-5-55555-3-5-7------------|
|-5-55555-5-55555-5-55555-5-1-3-1-11111-0-1-3-33333-1-3-5------------|
[ Tab from: http://www.guitartabs.cc/tabs/t/therion/asgard_tab.html ]
RIFF 5
|--------------------------------------------------------------------|
|--------------------------------------------------------------------|
|--------------------------------------------------------------------|
|-7-77777-7-77777-7-77777-7-5-5-5-7-5-5-7----------------------------|
|-7-77777-7-77777-7-77777-7-3-3-3-5-3-5-7----------------------------|
|-5-55555-5-55555-5-55555-5-----------3-5----------------------------|

RIFF 6
|--------------------------------------------------------------------|
|--------------------------------------------------------------------|
|-------4~----457~---75~---59~---------------------------------------|
|--5~---4~----457~---75~---59~---------------------------------------|
|--5~---2~----235~---53~---37~---------------------------------------|
|--3~----------------------------------------------------------------|


RIFF 7
|--------------------------------------------------------------------|
|--------------------------------------------------------------------|
|--7-77777-7-77777-7--5-7--------------------------------------------|
|--------------------8-----------------------------------------------|
|--------------------------------------------------------------------|
|--------------------------------------------------------------------|

RIFF 8
|--------------------------------------------------------------------|
|--------------------------------------------------------------------|
|--7-77777-7-77777-7---5-------------7-77777---5-7-------------------|
|--------------------8---8-88888-7-8---------8-----------------------|
|--------------------------------------------------------------------|
|--------------------------------------------------------------------|

SOLO (NOT DONE - HELP ON THIS)


--------------------------------------------------
RIFF 1 (X3) - start
RIFF 2 (X1)
RIFF 1 (X3)
RIFF 2 (X1)
RIFF 1 (X3)
RIFF 2 (X1)
RIFF 1 (X3)
RIFF 2 (X1)

RIFF 3 (X2) - MAIN
RIFF 4 (X1)
RIFF 5 (X1)

RIFF 3 (X2)
RIFF 4 (X1)
RIFF 5 (X1)

RIFF 3 (X2)
RIFF 4 (X1)
RIFF 5 (X1)

RIFF 3 (X2)
RIFF 4 (X1)
RIFF 5 (X1)

RIFF 6 (X2) 

RIFF 3 (X2) RIFF 7 (X2) - OVER RYTHGUITAR 
RIFF 4 (X1) RIFF 8 (X1) - OVER RYTHGUITAR 
RIFF 5 (X1)   |

RIFF 3 (X2)
RIFF 4 (X1)
RIFF 5 (X1)

RIFF 3 (X2)
RIFF 4 (X1)
RIFF 5 (X1)

RIFF 6 (X2)


RIFF 1 (X3)   - start again!
RIFF 2 (X1)
RIFF 1 (X3)
RIFF 2 (X1)
RIFF 1 (X3)
RIFF 2 (X1)
RIFF 1 (X3)
RIFF 2 (X1)

SOLO - ENDING
Comments