Therapy - Where Eagles Dare Chords & Tabs

 

Where Eagles Dare Chords & Tabs

Therapy Chords & Tabs

Version: 2 Type: Tab 0 ratings
1 star 2 stars 3 stars 4 stars 5 stars
comments

Where Eagles Dare Tab

   
Where Eagles Dare as covered by Therapy?

This is on Violent World -- A Tribute to the Misfits.

Note: A=10, B=11, etc.

------------------------------------------------------------------------------

There is nothing particularly complex in the song, although my tabbing of
the rhythm is probably way out.  Just listen to the song to figure it out
yourself.  In addition, the solo isn't right -- it's actually a bit more
flowery than what I've put down.  Oh, and there are two guitar parts (one
of them plays a lot of slides down for a lot of the piece).  Also, there's
some sax.  I haven't tabbed that part yet.

Final note: there's a pre-chorus bit which is just A5 and G5 but there's
a little pause in there.  I haven't tabbed it yet either.  All in all, a
nice incomplete bit of tab!


  A5                           G5   A5                           G5
E|----------------|----------------|----------------|----------------|
B|----------------|----------------|----------------|----------------|
G|----------------|----------------|----------------|----------------|
D|7-7-7---7-7-7---|7-7-7---7---5---|7-7-7---7-7-7---|7-7-7---7---5---|
A|7-7-7---7-7-7---|7-7-7---7---5---|7-7-7---7-7-7---|7-7-7---7---5---|
E|5-5-5---5-5-5---|5-5-5---5---3---|5-5-5---5-5-5---|5-5-5---5---3---|

  A5                           G5   A5                           G5
E|----------------|----------------|----------------|----------------|
B|----------------|----------------|----------------|----------------|
G|----------------|----------------|----------------|----------------| x3
D|7-7-7---7-7-7---|7-7-7---7---5---|7-7-7---7-7-7---|7-7-7---7---5---|
A|7-7-7---7-7-7---|7-7-7---7---5---|7-7-7---7-7-7---|7-7-7---7---5---|
E|5-5-5---5-5-5---|5-5-5---5---3---|5-5-5---5-5-5---|5-5-5---5---3---|
  We walk the streets at night      We go where eagles dare
  They pick up every movement       They pick up every loser
  With jaded eyes and features      You think they really care

  C5               F5      G5       C5               F5      G5
E|----------------|----------------|----------------|----------------|
B|----------------|----------------|----------------|----------------|
G|5---5---5---5---|----------------|5---5---5---5---|----------------| x2
D|5---5---5---5---|3---3---5---5---|5---5---5---5---|3---3---5---5---|
A|3---3---3---3---|3---3---5---5---|3---3---3---3---|3---3---5---5---|
E|----------------|1---1---3---3---|----------------|1---1---3---3---|
  I ain't no goddamn son of a bitch You better think about it baby
  I ain't no goddamn son of a bitch You better think about it baby, babe

  A5                           G5   A5                           G5
E|----------------|----------------|----------------|----------------|
B|----------------|----------------|----------------|----------------|
G|----------------|----------------|----------------|----------------|
D|7-7-7---7-7-7---|7-7-7---7---5---|7-7-7---7-7-7---|7-7-7---7---5---|
A|7-7-7---7-7-7---|7-7-7---7---5---|7-7-7---7-7-7---|7-7-7---7---5---|
E|5-5-5---5-5-5---|5-5-5---5---3---|5-5-5---5-5-5---|5-5-5---5---3---|
  An omelet of disease awaits your noon-time meal
                                    Her mouth of germicide seducing all
                                                            your glands
[ Tab from: http://www.guitartabs.cc/tabs/t/therapy/where_eagles_dare_tab_ver_2.html ]
  C5               F5      G5       C5               F5      G5
E|----------------|----------------|----------------|----------------|
B|----------------|----------------|----------------|----------------|
G|5---5---5---5---|----------------|5---5---5---5---|----------------| x2
D|5---5---5---5---|3---3---5---5---|5---5---5---5---|3---3---5---5---|
A|3---3---3---3---|3---3---5---5---|3---3---3---3---|3---3---5---5---|
E|----------------|1---1---3---3---|----------------|1---1---3---3---|
  I ain't no goddamn son of a bitch You better think about it baby
  I ain't no goddamn son of a bitch You better think about it baby, babe

  A5
E|----------------|----------------|----------------|----------------|
B|----------------|----------------|----------------|----------------|
G|----------------|----------------|----------------|----------------|
D|7---------------|----------------|----------------|----------------|
A|7---------------|----------------|----------------|----------------|
E|5---------------|----------------|----------------|----------------|

E|----------------|----------------|----------------|----------------|
B|----------------|----------------|----------------|----------------|
G|----------------|----------------|----------------|----------------|
D|----------------|----------------|----------------|----------------|
A|4--5--4---5-4-7-|4--5--4---5-4---|4--5--4---5-4-7-|4--5--4---5-4---|
E|----------------|--------------5-|----------------|--------------5-|

E|----------------|----------------|----------------|----------------|
B|A---------------|A---------------|A---------------|A---------------|
G|--9-6-5---6-5-9-|--9-6-5---6-5---|--9-6-5---6-5-9-|--9-6-5---6-5---|
D|----------------|--------------5-|----------------|--------------5-|
A|----------------|----------------|----------------|----------------|
E|----------------|----------------|----------------|----------------|

  A5                           G5   A5                           G5
E|----------------|----------------|----------------|----------------|
B|----------------|----------------|----------------|----------------|
G|----------------|----------------|----------------|----------------| x4
D|7-7-7---7-7-7---|7-7-7---7---5---|7-7-7---7-7-7---|7-7-7---7---5---|
A|7-7-7---7-7-7---|7-7-7---7---5---|7-7-7---7-7-7---|7-7-7---7---5---|
E|5-5-5---5-5-5---|5-5-5---5---3---|5-5-5---5-5-5---|5-5-5---5---3---|
  Let's test your threshold of pain Let's see how long you last
  That's happened in your rape      On bosoms of your past
  With jaded eyes and features      You think they really care
  We'll go where eagles dare        Let's go where eagles dare

  C5               F5      G5       C5               F5      G5
E|----------------|----------------|----------------|----------------|
B|----------------|----------------|----------------|----------------|
G|5---5---5---5---|----------------|5---5---5---5---|----------------| x2
D|5---5---5---5---|3---3---5---5---|5---5---5---5---|3---3---5---5---|
A|3---3---3---3---|3---3---5---5---|3---3---3---3---|3---3---5---5---|
E|----------------|1---1---3---3---|----------------|1---1---3---3---|
  I ain't no goddamn son of a bitch You better think about it baby
  I ain't no goddamn son of a bitch You better think about it baby

  C5               F5      G5       C5               F5      G5
E|----------------|----------------|----------------|----------------|
B|----------------|----------------|----------------|----------------|
G|5---5---5---5---|----------------|5---5---5---5---|----------------|
D|5---5---5---5---|3---3---5---5---|5---5---5---5---|3---3---5---5---|
A|3---3---3---3---|3---3---5---5---|3---3---3---3---|3---3---5---5---|
E|----------------|1---1---3---3---|----------------|1---1---3---3---|
  I ain't no goddamn son of a       I ain't no goddamn son of a

  C5               F5      G5                        C5
E|----------------|----------------|----------------|----------------|
B|----------------|----------------|----------------|----------------|
G|5---5---5---5---|----------------|----------------|5---------------|
D|5---5---5---5---|3---3---5---5---|----------------|5---------------|
A|3---3---3---3---|3---3---5---5---|----------------|3---------------|
E|----------------|1---1---3---3---|----------------|----------------|
  I ain't no goddamn son of a                        Bitch

  I got a bit carried away
Comments