Therapy - Stories Chords & Tabs

 

Stories Chords & Tabs

Therapy Chords & Tabs

Version: 1 Type: Tab 0 ratings
1 star 2 stars 3 stars 4 stars 5 stars
comments

Stories Tab

Therapy? - Stories

Theres already a tab of this up but this way is alot easier 



Main Riff

e|-------------------------------:-----------------------------
B|----------11-----------13------:----------11-----------10----
G|-------------------------------:-----------------------------
D|-12---12--12--12---12--12------:--8---8---8----7---7---7-----
A|-10---10------10---10----------:-----------------------------
E|-------------------------------:-----------------------------
   |||||||      |||||||            |||||||      |||||||          ||| = palm mute


Pre chorus


e|--------------------------------------------------------
B|--------------------------------------------------------
G|--9---9---------8---8-----------------------------------
D|--9---9---------8---8-----------------------------------
A|--7---7---------6---6-----------------------------------
E|--0---0-------------------------------------------------
 

Chorus


e|------------------------------------------------------
B|------------------------------------------------------
G|-4--x-4--x--6-x--6-x--7-x--7-x--9---9-----------------
D|-5--x-5--x--7-x--7-x--7-x--7-x--9---9-----------------
A|-5--x-5--x--7-x--7-x--5-x--5-x--7---7-----------------
E|-3--x-3--x--5-x--5-x----------------------------------


Play these with upstrokes and the 'x' are like stopping it with your palm somewhat 'ska' style


funky bit

[ Tab from: http://www.guitartabs.cc/tabs/t/therapy/stories_tab.html ]
e|------------------------------------------------------------------
B|------------------------------------------------------------------
G|------------------------------------------------------------------
D|-2--2--2--2-----------2--2--2----------2--2--2--2--4--5--5--6--7--
A|-2--2--2--2-----------2--2--2----------2--2--2--2--4--5--5--6--7--
E|-0--0--0--0--0--3p-0--0--0--0--0--6p-0-0--0--0--0--2--3--3--4--5--


Pre-solo

e|--------------------------------------------------------
B|--------------------------------------------------------
G|--------------------------------------------------------
D|---5---5------8-----7-----------------------------------
A|-----3-----6-----5--------------------------------------
E|-3------------------------------------------------------

Solo

e|----------------------------------------------------------------------6---------------
B|-----8-----8-----8----------8-----8-----------11-----10-----9-----10--6---------------
G|--7-----7-----7-----b8r--7-----7-----b8r--10------9------8-----9---------b10r--8--7---
D|--------------------------------------------------------------------------------------
A|--------------------------------------------------------------------------------------
E|--------------------------------------------------------------------------------------


Outro


e|--------------------------------------------------------
B|--------------------------------------------------------
G|--------------------------------------------------------
D|-----5-----5------8-----7--5----------------------------
A|--------3------6-----5-----5----------------------------
E|--3------------------------3----------------------------


I'm sure if your a therapy? fan you can work out the rhythm and what happens when

anyway comments, corrections Peter - d3v1l_2000@hotmail.com
Comments